  0
SECTION
  2
HEADER
  9
$ACADVER
  1
AC1009
  9
$DWGCODEPAGE
  3
ansi_1252
  9
$INSBASE
 10
0.0
 20
0.0
 30
0.0
  9
$EXTMIN
 10
-4608.881449091092
 20
-2969.107524749243
 30
0.0
  9
$EXTMAX
 10
3942.005879214663
 20
14600.0
 30
0.0
  9
$LIMMIN
 10
0.0
 20
0.0
  9
$LIMMAX
 10
12.0
 20
9.0
  9
$ORTHOMODE
 70
     0
  9
$REGENMODE
 70
     1
  9
$FILLMODE
 70
     1
  9
$QTEXTMODE
 70
     0
  9
$MIRRTEXT
 70
     1
  9
$DRAGMODE
 70
     2
  9
$LTSCALE
 40
1.0
  9
$OSMODE
 70
    37
  9
$ATTMODE
 70
     1
  9
$TEXTSIZE
 40
0.2
  9
$TRACEWID
 40
0.05
  9
$TEXTSTYLE
  7
STANDARD
  9
$CLAYER
  8
1_PAPPENGR__SHEET_SIZE
  9
$CELTYPE
  6
BYLAYER
  9
$CECOLOR
 62
   256
  9
$DIMSCALE
 40
1.0
  9
$DIMASZ
 40
0.18
  9
$DIMEXO
 40
0.0625
  9
$DIMDLI
 40
0.38
  9
$DIMRND
 40
0.0
  9
$DIMDLE
 40
0.0
  9
$DIMEXE
 40
0.18
  9
$DIMTP
 40
0.0
  9
$DIMTM
 40
0.0
  9
$DIMTXT
 40
0.18
  9
$DIMCEN
 40
0.09
  9
$DIMTSZ
 40
0.0
  9
$DIMTOL
 70
     0
  9
$DIMLIM
 70
     0
  9
$DIMTIH
 70
     1
  9
$DIMTOH
 70
     1
  9
$DIMSE1
 70
     0
  9
$DIMSE2
 70
     0
  9
$DIMTAD
 70
     0
  9
$DIMZIN
 70
     0
  9
$DIMBLK
  1

  9
$DIMASO
 70
     1
  9
$DIMSHO
 70
     1
  9
$DIMPOST
  1

  9
$DIMAPOST
  1

  9
$DIMALT
 70
     0
  9
$DIMALTD
 70
     2
  9
$DIMALTF
 40
25.4
  9
$DIMLFAC
 40
1.0
  9
$DIMTOFL
 70
     0
  9
$DIMTVP
 40
0.0
  9
$DIMTIX
 70
     0
  9
$DIMSOXD
 70
     0
  9
$DIMSAH
 70
     0
  9
$DIMBLK1
  1

  9
$DIMBLK2
  1

  9
$DIMSTYLE
  2
STANDARD_ACAD
  9
$DIMCLRD
 70
     0
  9
$DIMCLRE
 70
     0
  9
$DIMCLRT
 70
     0
  9
$DIMTFAC
 40
1.0
  9
$DIMGAP
 40
0.09
  9
$LUNITS
 70
     2
  9
$LUPREC
 70
     3
  9
$SKETCHINC
 40
0.1
  9
$FILLETRAD
 40
0.0
  9
$AUNITS
 70
     0
  9
$AUPREC
 70
     0
  9
$MENU
  1
.
  9
$ELEVATION
 40
0.0
  9
$PELEVATION
 40
0.0
  9
$THICKNESS
 40
0.0
  9
$LIMCHECK
 70
     0
  9
$CHAMFERA
 40
0.0
  9
$CHAMFERB
 40
0.0
  9
$SKPOLY
 70
     0
  9
$TDCREATE
 40
2459562.675246748
  9
$TDUPDATE
 40
2459562.675337986
  9
$TDINDWG
 40
0.0000000116
  9
$TDUSRTIMER
 40
0.0000000116
  9
$USRTIMER
 70
     1
  9
$ANGBASE
 50
0.0
  9
$ANGDIR
 70
     0
  9
$PDMODE
 70
     0
  9
$PDSIZE
 40
0.0
  9
$PLINEWID
 40
0.0
  9
$COORDS
 70
     1
  9
$SPLFRAME
 70
     0
  9
$SPLINETYPE
 70
     6
  9
$SPLINESEGS
 70
     8
  9
$ATTDIA
 70
     0
  9
$ATTREQ
 70
     1
  9
$HANDLING
 70
     1
  9
$HANDSEED
  5
8D6
  9
$SURFTAB1
 70
     6
  9
$SURFTAB2
 70
     6
  9
$SURFTYPE
 70
     6
  9
$SURFU
 70
     6
  9
$SURFV
 70
     6
  9
$UCSNAME
  2

  9
$UCSORG
 10
0.0
 20
0.0
 30
0.0
  9
$UCSXDIR
 10
1.0
 20
0.0
 30
0.0
  9
$UCSYDIR
 10
0.0
 20
1.0
 30
0.0
  9
$PUCSNAME
  2

  9
$PUCSORG
 10
0.0
 20
0.0
 30
0.0
  9
$PUCSXDIR
 10
1.0
 20
0.0
 30
0.0
  9
$PUCSYDIR
 10
0.0
 20
1.0
 30
0.0
  9
$USERI1
 70
     0
  9
$USERI2
 70
     0
  9
$USERI3
 70
     0
  9
$USERI4
 70
     0
  9
$USERI5
 70
     0
  9
$USERR1
 40
0.0
  9
$USERR2
 40
0.0
  9
$USERR3
 40
0.0
  9
$USERR4
 40
0.0
  9
$USERR5
 40
0.0
  9
$WORLDVIEW
 70
     1
  9
$SHADEDGE
 70
     3
  9
$SHADEDIF
 70
    70
  9
$TILEMODE
 70
     1
  9
$MAXACTVP
 70
    64
  9
$PLIMCHECK
 70
     0
  9
$PEXTMIN
 10
0.0
 20
0.0
 30
0.0
  9
$PEXTMAX
 10
0.0
 20
0.0
 30
0.0
  9
$PLIMMIN
 10
0.0
 20
0.0
  9
$PLIMMAX
 10
12.0
 20
9.0
  9
$UNITMODE
 70
     0
  9
$VISRETAIN
 70
     1
  9
$PLINEGEN
 70
     0
  9
$PSLTSCALE
 70
     1
  0
ENDSEC
  0
SECTION
  2
TABLES
  0
TABLE
  2
VPORT
 70
     1
  0
VPORT
  2
*ACTIVE
 70
     0
 10
0.0
 20
0.0
 11
1.0
 21
1.0
 12
10.42990654205607
 22
4.5
 13
0.0
 23
0.0
 14
0.5
 24
0.5
 15
0.5
 25
0.5
 16
0.0
 26
0.0
 36
1.0
 17
0.0
 27
0.0
 37
0.0
 40
9.0
 41
1.972972972850329
 42
50.0
 43
0.0
 44
0.0
 50
0.0
 51
0.0
 71
     0
 72
   100
 73
     1
 74
     3
 75
     0
 76
     0
 77
     0
 78
     0
  0
ENDTAB
  0
TABLE
  2
LTYPE
 70
     1
  0
LTYPE
  2
CONTINUOUS
 70
     0
  3
Solid line
 72
    65
 73
     0
 40
0.0
  0
ENDTAB
  0
TABLE
  2
LAYER
 70
    10
  0
LAYER
  2
0
 70
     0
 62
     7
  6
CONTINUOUS
  0
LAYER
  2
1_PAPPENGR__SHEET_SIZE
 70
     0
 62
   254
  6
CONTINUOUS
  0
LAYER
  2
0_INFO
 70
     4
 62
     7
  6
CONTINUOUS
  0
LAYER
  2
3_GRAVUR_LEICHT_SLIGHT_ENG
 70
     0
 62
     3
  6
CONTINUOUS
  0
LAYER
  2
7_SCHNITT_INNENLIEGEND_CUT
 70
     0
 62
     2
  6
CONTINUOUS
  0
LAYER
  2
6_RASTER_TIEF_DEEP_RASTER
 70
     0
 62
    30
  6
CONTINUOUS
  0
LAYER
  2
5_RASTER_LEICHT_SLIGHT_RAS
 70
     0
 62
     4
  6
CONTINUOUS
  0
LAYER
  2
4_GRAVUR_TIEF_DEEP_ENGRAVI
 70
     0
 62
     1
  6
CONTINUOUS
  0
LAYER
  2
2_ZEICHNEN_PEN
 70
     0
 62
    98
  6
CONTINUOUS
  0
LAYER
  2
8_SCHNITT_CUT
 70
     0
 62
     5
  6
CONTINUOUS
  0
ENDTAB
  0
TABLE
  2
STYLE
 70
     2
  0
STYLE
  2
STANDARD
 70
     0
 40
0.0
 41
1.0
 50
0.0
 71
     0
 42
0.2
  3
txt
  4

  0
STYLE
  2
ARIAL
 70
     0
 40
0.0
 41
1.0
 50
0.0
 71
     0
 42
0.2
  3

  4

  0
ENDTAB
  0
TABLE
  2
VIEW
 70
     0
  0
ENDTAB
  0
TABLE
  2
UCS
 70
     0
  0
ENDTAB
  0
TABLE
  2
APPID
 70
     3
  0
APPID
  2
ACAD
 70
     0
  0
APPID
  2
RHINO
 70
     0
  0
APPID
  2
ACADANNOTATIVE
 70
     0
  0
ENDTAB
  0
TABLE
  2
DIMSTYLE
 70
     1
  0
DIMSTYLE
  2
STANDARD_ACAD
 70
     0
  3

  4

  5

  6

  7

 40
1.0
 41
0.18
 42
0.0625
 43
0.38
 44
0.18
 45
0.0
 46
0.0
 47
0.0
 48
0.0
140
0.18
141
0.09
142
0.0
143
25.4
144
1.0
145
0.0
146
1.0
147
0.09
 71
     0
 72
     0
 73
     1
 74
     1
 75
     0
 76
     0
 77
     0
 78
     0
170
     0
171
     2
172
     0
173
     0
174
     0
175
     0
176
     0
177
     0
178
     0
  0
ENDTAB
  0
ENDSEC
  0
SECTION
  2
BLOCKS
  0
BLOCK
  8
0
  2
$MODEL_SPACE
 70
     0
 10
0.0
 20
0.0
 30
0.0
  3
$MODEL_SPACE
  1

  0
ENDBLK
  5
21
  8
0
  0
BLOCK
 67
     1
  8
0
  2
$PAPER_SPACE
 70
     0
 10
0.0
 20
0.0
 30
0.0
  3
$PAPER_SPACE
  1

  0
ENDBLK
  5
786
 67
     1
  8
0
  0
BLOCK
  8
0
  2
*X2
 70
     1
 10
0.0
 20
0.0
 30
0.0
  3
*X2
  1

  0
TEXT
  5
794
  8
0_INFO
 62
     1
 10
1235.247030994097
 20
-51.22880190049224
 30
0.0
 40
25.1722
  1
Zum Rand der Pappe muss min. 2 mm Rand eingerechnet werden !
  0
TEXT
  5
795
  8
0_INFO
 62
     1
 10
1234.04835480362
 20
-97.97717332906367
 30
0.0
 40
25.1722
  1
(Laser)
  0
ENDBLK
  5
899
  8
0
  0
BLOCK
  8
0
  2
*X3
 70
     1
 10
0.0
 20
0.0
 30
0.0
  3
*X3
  1

  0
TEXT
  5
797
  8
0_INFO
 10
-967.5960285714285
 20
624.2499643518519
 30
0.0
 40
25.1722
  1
Standardpappe 700 x 1000 mm
  0
TEXT
  5
798
  8
0_INFO
 10
-967.5960285714285
 20
582.2962976851852
 30
0.0
 40
25.1722
  1
Querformat
  0
ENDBLK
  5
89B
  8
0
  0
BLOCK
  8
0
  2
*X4
 70
     1
 10
0.0
 20
0.0
 30
0.0
  3
*X4
  1

  0
TEXT
  5
79A
  8
0_INFO
 62
     1
 10
23.58552890410367
 20
382.152229620609
 30
0.0
 40
25.1722
  1
Zum Rand der Pappe muss min. 5 mm Rand eingerechnet werden !
  0
TEXT
  5
79B
  8
0_INFO
 62
     1
 10
22.38685271362748
 20
335.4038581920376
 30
0.0
 40
25.1722
  1
(Schneidplotter)
  0
ENDBLK
  5
89D
  8
0
  0
BLOCK
  8
0
  2
*U5
 70
     1
 10
0.0
 20
0.0
 30
0.0
  3
*U5
  1

  0
SOLID
  5
79D
  8
0_INFO
  6
CONTINUOUS
 62
     4
 10
3208.0
 20
-2551.679874915185
 30
0.0
 11
3208.0
 21
-2499.679874915184
 31
0.0
 12
3210.0
 22
-2551.679874915185
 32
0.0
 13
3210.0
 23
-2551.679874915185
 33
0.0
210
0.0
220
0.0
230
-1.0
  0
SOLID
  5
79E
  8
0_INFO
  6
CONTINUOUS
 62
     4
 10
3210.0
 20
-2501.679874915184
 30
0.0
 11
3208.0
 21
-2499.679874915184
 31
0.0
 12
3210.0
 22
-2499.679874915184
 32
0.0
 13
3210.0
 23
-2499.679874915184
 33
0.0
210
0.0
220
0.0
230
-1.0
  0
SOLID
  5
79F
  8
0_INFO
  6
CONTINUOUS
 62
     4
 10
3210.0
 20
-2501.679874915184
 30
0.0
 11
3210.0
 21
-2499.679874915184
 31
0.0
 12
3240.0
 22
-2501.679874915184
 32
0.0
 13
3240.0
 23
-2501.679874915184
 33
0.0
210
0.0
220
0.0
230
-1.0
  0
SOLID
  5
7A0
  8
0_INFO
  6
CONTINUOUS
 62
     4
 10
3240.0
 20
-2501.679874915184
 30
0.0
 11
3210.0
 21
-2499.679874915184
 31
0.0
 12
3240.0
 22
-2499.679874915184
 32
0.0
 13
3240.0
 23
-2499.679874915184
 33
0.0
210
0.0
220
0.0
230
-1.0
  0
SOLID
  5
7A1
  8
0_INFO
  6
CONTINUOUS
 62
     4
 10
3240.0
 20
-2501.679874915184
 30
0.0
 11
3240.0
 21
-2499.679874915184
 31
0.0
 12
3242.0
 22
-2551.679874915185
 32
0.0
 13
3242.0
 23
-2551.679874915185
 33
0.0
210
0.0
220
0.0
230
-1.0
  0
SOLID
  5
7A2
  8
0_INFO
  6
CONTINUOUS
 62
     4
 10
3242.0
 20
-2551.679874915185
 30
0.0
 11
3240.0
 21
-2499.679874915184
 31
0.0
 12
3242.0
 22
-2499.679874915184
 32
0.0
 13
3242.0
 23
-2499.679874915184
 33
0.0
210
0.0
220
0.0
230
-1.0
  0
SOLID
  5
7A3
  8
0_INFO
  6
CONTINUOUS
 62
     4
 10
3210.0
 20
-2551.679874915185
 30
0.0
 11
3208.0
 21
-2499.679874915184
 31
0.0
 12
3210.0
 22
-2501.679874915184
 32
0.0
 13
3210.0
 23
-2501.679874915184
 33
0.0
210
0.0
220
0.0
230
-1.0
  0
SOLID
  5
7A4
  8
0_INFO
  6
CONTINUOUS
 62
     4
 10
3240.0
 20
-2551.679874915185
 30
0.0
 11
3240.0
 21
-2501.679874915184
 31
0.0
 12
3242.0
 22
-2551.679874915185
 32
0.0
 13
3242.0
 23
-2551.679874915185
 33
0.0
210
0.0
220
0.0
230
-1.0
  0
ENDBLK
  5
89F
  8
0
  0
BLOCK
  8
0
  2
*U6
 70
     1
 10
0.0
 20
0.0
 30
0.0
  3
*U6
  1

  0
SOLID
  5
7A6
  8
0_INFO
  6
CONTINUOUS
 62
     4
 10
-3282.0
 20
-2551.679874915185
 30
0.0
 11
-3282.0
 21
-2499.679874915184
 31
0.0
 12
-3280.0
 22
-2551.679874915185
 32
0.0
 13
-3280.0
 23
-2551.679874915185
 33
0.0
  0
SOLID
  5
7A7
  8
0_INFO
  6
CONTINUOUS
 62
     4
 10
-3280.0
 20
-2501.679874915184
 30
0.0
 11
-3282.0
 21
-2499.679874915184
 31
0.0
 12
-3280.0
 22
-2499.679874915184
 32
0.0
 13
-3280.0
 23
-2499.679874915184
 33
0.0
  0
SOLID
  5
7A8
  8
0_INFO
  6
CONTINUOUS
 62
     4
 10
-3280.0
 20
-2501.679874915184
 30
0.0
 11
-3280.0
 21
-2499.679874915184
 31
0.0
 12
-3250.0
 22
-2501.679874915184
 32
0.0
 13
-3250.0
 23
-2501.679874915184
 33
0.0
  0
SOLID
  5
7A9
  8
0_INFO
  6
CONTINUOUS
 62
     4
 10
-3250.0
 20
-2501.679874915184
 30
0.0
 11
-3280.0
 21
-2499.679874915184
 31
0.0
 12
-3250.0
 22
-2499.679874915184
 32
0.0
 13
-3250.0
 23
-2499.679874915184
 33
0.0
  0
SOLID
  5
7AA
  8
0_INFO
  6
CONTINUOUS
 62
     4
 10
-3250.0
 20
-2501.679874915184
 30
0.0
 11
-3250.0
 21
-2499.679874915184
 31
0.0
 12
-3248.0
 22
-2551.679874915185
 32
0.0
 13
-3248.0
 23
-2551.679874915185
 33
0.0
  0
SOLID
  5
7AB
  8
0_INFO
  6
CONTINUOUS
 62
     4
 10
-3248.0
 20
-2551.679874915185
 30
0.0
 11
-3250.0
 21
-2499.679874915184
 31
0.0
 12
-3248.0
 22
-2499.679874915184
 32
0.0
 13
-3248.0
 23
-2499.679874915184
 33
0.0
  0
SOLID
  5
7AC
  8
0_INFO
  6
CONTINUOUS
 62
     4
 10
-3280.0
 20
-2551.679874915185
 30
0.0
 11
-3282.0
 21
-2499.679874915184
 31
0.0
 12
-3280.0
 22
-2501.679874915184
 32
0.0
 13
-3280.0
 23
-2501.679874915184
 33
0.0
  0
SOLID
  5
7AD
  8
0_INFO
  6
CONTINUOUS
 62
     4
 10
-3250.0
 20
-2551.679874915185
 30
0.0
 11
-3250.0
 21
-2501.679874915184
 31
0.0
 12
-3248.0
 22
-2551.679874915185
 32
0.0
 13
-3248.0
 23
-2551.679874915185
 33
0.0
  0
ENDBLK
  5
8A1
  8
0
  0
BLOCK
  8
0
  2
*U7
 70
     1
 10
0.0
 20
0.0
 30
0.0
  3
*U7
  1

  0
SOLID
  5
7AF
  8
0_INFO
  6
CONTINUOUS
 62
     4
 10
3308.0
 20
-2551.679874915185
 30
0.0
 11
3308.0
 21
-2499.679874915184
 31
0.0
 12
3310.0
 22
-2551.679874915185
 32
0.0
 13
3310.0
 23
-2551.679874915185
 33
0.0
210
0.0
220
0.0
230
-1.0
  0
SOLID
  5
7B0
  8
0_INFO
  6
CONTINUOUS
 62
     4
 10
3310.0
 20
-2501.679874915184
 30
0.0
 11
3308.0
 21
-2499.679874915184
 31
0.0
 12
3310.0
 22
-2499.679874915184
 32
0.0
 13
3310.0
 23
-2499.679874915184
 33
0.0
210
0.0
220
0.0
230
-1.0
  0
SOLID
  5
7B1
  8
0_INFO
  6
CONTINUOUS
 62
     4
 10
3310.0
 20
-2501.679874915184
 30
0.0
 11
3310.0
 21
-2499.679874915184
 31
0.0
 12
3340.0
 22
-2501.679874915184
 32
0.0
 13
3340.0
 23
-2501.679874915184
 33
0.0
210
0.0
220
0.0
230
-1.0
  0
SOLID
  5
7B2
  8
0_INFO
  6
CONTINUOUS
 62
     4
 10
3340.0
 20
-2501.679874915184
 30
0.0
 11
3310.0
 21
-2499.679874915184
 31
0.0
 12
3340.0
 22
-2499.679874915184
 32
0.0
 13
3340.0
 23
-2499.679874915184
 33
0.0
210
0.0
220
0.0
230
-1.0
  0
SOLID
  5
7B3
  8
0_INFO
  6
CONTINUOUS
 62
     4
 10
3340.0
 20
-2501.679874915184
 30
0.0
 11
3340.0
 21
-2499.679874915184
 31
0.0
 12
3342.0
 22
-2551.679874915185
 32
0.0
 13
3342.0
 23
-2551.679874915185
 33
0.0
210
0.0
220
0.0
230
-1.0
  0
SOLID
  5
7B4
  8
0_INFO
  6
CONTINUOUS
 62
     4
 10
3342.0
 20
-2551.679874915185
 30
0.0
 11
3340.0
 21
-2499.679874915184
 31
0.0
 12
3342.0
 22
-2499.679874915184
 32
0.0
 13
3342.0
 23
-2499.679874915184
 33
0.0
210
0.0
220
0.0
230
-1.0
  0
SOLID
  5
7B5
  8
0_INFO
  6
CONTINUOUS
 62
     4
 10
3310.0
 20
-2551.679874915185
 30
0.0
 11
3308.0
 21
-2499.679874915184
 31
0.0
 12
3310.0
 22
-2501.679874915184
 32
0.0
 13
3310.0
 23
-2501.679874915184
 33
0.0
210
0.0
220
0.0
230
-1.0
  0
SOLID
  5
7B6
  8
0_INFO
  6
CONTINUOUS
 62
     4
 10
3340.0
 20
-2551.679874915185
 30
0.0
 11
3340.0
 21
-2501.679874915184
 31
0.0
 12
3342.0
 22
-2551.679874915185
 32
0.0
 13
3342.0
 23
-2551.679874915185
 33
0.0
210
0.0
220
0.0
230
-1.0
  0
ENDBLK
  5
8A3
  8
0
  0
BLOCK
  8
0
  2
*U8
 70
     1
 10
0.0
 20
0.0
 30
0.0
  3
*U8
  1

  0
SOLID
  5
7B8
  8
0_INFO
  6
CONTINUOUS
 62
     4
 10
-3382.0
 20
-2551.679874915185
 30
0.0
 11
-3382.0
 21
-2499.679874915184
 31
0.0
 12
-3380.0
 22
-2551.679874915185
 32
0.0
 13
-3380.0
 23
-2551.679874915185
 33
0.0
  0
SOLID
  5
7B9
  8
0_INFO
  6
CONTINUOUS
 62
     4
 10
-3380.0
 20
-2501.679874915184
 30
0.0
 11
-3382.0
 21
-2499.679874915184
 31
0.0
 12
-3380.0
 22
-2499.679874915184
 32
0.0
 13
-3380.0
 23
-2499.679874915184
 33
0.0
  0
SOLID
  5
7BA
  8
0_INFO
  6
CONTINUOUS
 62
     4
 10
-3380.0
 20
-2501.679874915184
 30
0.0
 11
-3380.0
 21
-2499.679874915184
 31
0.0
 12
-3350.0
 22
-2501.679874915184
 32
0.0
 13
-3350.0
 23
-2501.679874915184
 33
0.0
  0
SOLID
  5
7BB
  8
0_INFO
  6
CONTINUOUS
 62
     4
 10
-3350.0
 20
-2501.679874915184
 30
0.0
 11
-3380.0
 21
-2499.679874915184
 31
0.0
 12
-3350.0
 22
-2499.679874915184
 32
0.0
 13
-3350.0
 23
-2499.679874915184
 33
0.0
  0
SOLID
  5
7BC
  8
0_INFO
  6
CONTINUOUS
 62
     4
 10
-3350.0
 20
-2501.679874915184
 30
0.0
 11
-3350.0
 21
-2499.679874915184
 31
0.0
 12
-3348.0
 22
-2551.679874915185
 32
0.0
 13
-3348.0
 23
-2551.679874915185
 33
0.0
  0
SOLID
  5
7BD
  8
0_INFO
  6
CONTINUOUS
 62
     4
 10
-3348.0
 20
-2551.679874915185
 30
0.0
 11
-3350.0
 21
-2499.679874915184
 31
0.0
 12
-3348.0
 22
-2499.679874915184
 32
0.0
 13
-3348.0
 23
-2499.679874915184
 33
0.0
  0
SOLID
  5
7BE
  8
0_INFO
  6
CONTINUOUS
 62
     4
 10
-3380.0
 20
-2551.679874915185
 30
0.0
 11
-3382.0
 21
-2499.679874915184
 31
0.0
 12
-3380.0
 22
-2501.679874915184
 32
0.0
 13
-3380.0
 23
-2501.679874915184
 33
0.0
  0
SOLID
  5
7BF
  8
0_INFO
  6
CONTINUOUS
 62
     4
 10
-3350.0
 20
-2551.679874915185
 30
0.0
 11
-3350.0
 21
-2501.679874915184
 31
0.0
 12
-3348.0
 22
-2551.679874915185
 32
0.0
 13
-3348.0
 23
-2551.679874915185
 33
0.0
  0
ENDBLK
  5
8A5
  8
0
  0
BLOCK
  8
0
  2
*U9
 70
     1
 10
0.0
 20
0.0
 30
0.0
  3
*U9
  1

  0
SOLID
  5
7C1
  8
0_INFO
  6
CONTINUOUS
 62
     4
 10
3408.0
 20
-2551.679874915185
 30
0.0
 11
3408.0
 21
-2499.679874915184
 31
0.0
 12
3410.0
 22
-2551.679874915185
 32
0.0
 13
3410.0
 23
-2551.679874915185
 33
0.0
210
0.0
220
0.0
230
-1.0
  0
SOLID
  5
7C2
  8
0_INFO
  6
CONTINUOUS
 62
     4
 10
3410.0
 20
-2501.679874915184
 30
0.0
 11
3408.0
 21
-2499.679874915184
 31
0.0
 12
3410.0
 22
-2499.679874915184
 32
0.0
 13
3410.0
 23
-2499.679874915184
 33
0.0
210
0.0
220
0.0
230
-1.0
  0
SOLID
  5
7C3
  8
0_INFO
  6
CONTINUOUS
 62
     4
 10
3410.0
 20
-2501.679874915184
 30
0.0
 11
3410.0
 21
-2499.679874915184
 31
0.0
 12
3440.0
 22
-2501.679874915184
 32
0.0
 13
3440.0
 23
-2501.679874915184
 33
0.0
210
0.0
220
0.0
230
-1.0
  0
SOLID
  5
7C4
  8
0_INFO
  6
CONTINUOUS
 62
     4
 10
3440.0
 20
-2501.679874915184
 30
0.0
 11
3410.0
 21
-2499.679874915184
 31
0.0
 12
3440.0
 22
-2499.679874915184
 32
0.0
 13
3440.0
 23
-2499.679874915184
 33
0.0
210
0.0
220
0.0
230
-1.0
  0
SOLID
  5
7C5
  8
0_INFO
  6
CONTINUOUS
 62
     4
 10
3440.0
 20
-2501.679874915184
 30
0.0
 11
3440.0
 21
-2499.679874915184
 31
0.0
 12
3442.0
 22
-2551.679874915185
 32
0.0
 13
3442.0
 23
-2551.679874915185
 33
0.0
210
0.0
220
0.0
230
-1.0
  0
SOLID
  5
7C6
  8
0_INFO
  6
CONTINUOUS
 62
     4
 10
3442.0
 20
-2551.679874915185
 30
0.0
 11
3440.0
 21
-2499.679874915184
 31
0.0
 12
3442.0
 22
-2499.679874915184
 32
0.0
 13
3442.0
 23
-2499.679874915184
 33
0.0
210
0.0
220
0.0
230
-1.0
  0
SOLID
  5
7C7
  8
0_INFO
  6
CONTINUOUS
 62
     4
 10
3410.0
 20
-2551.679874915185
 30
0.0
 11
3408.0
 21
-2499.679874915184
 31
0.0
 12
3410.0
 22
-2501.679874915184
 32
0.0
 13
3410.0
 23
-2501.679874915184
 33
0.0
210
0.0
220
0.0
230
-1.0
  0
SOLID
  5
7C8
  8
0_INFO
  6
CONTINUOUS
 62
     4
 10
3440.0
 20
-2551.679874915185
 30
0.0
 11
3440.0
 21
-2501.679874915184
 31
0.0
 12
3442.0
 22
-2551.679874915185
 32
0.0
 13
3442.0
 23
-2551.679874915185
 33
0.0
210
0.0
220
0.0
230
-1.0
  0
ENDBLK
  5
8A7
  8
0
  0
BLOCK
  8
0
  2
*U10
 70
     1
 10
0.0
 20
0.0
 30
0.0
  3
*U10
  1

  0
SOLID
  5
7CA
  8
0_INFO
  6
CONTINUOUS
 62
     4
 10
-3482.0
 20
-2551.679874915185
 30
0.0
 11
-3482.0
 21
-2499.679874915184
 31
0.0
 12
-3480.0
 22
-2551.679874915185
 32
0.0
 13
-3480.0
 23
-2551.679874915185
 33
0.0
  0
SOLID
  5
7CB
  8
0_INFO
  6
CONTINUOUS
 62
     4
 10
-3480.0
 20
-2501.679874915184
 30
0.0
 11
-3482.0
 21
-2499.679874915184
 31
0.0
 12
-3480.0
 22
-2499.679874915184
 32
0.0
 13
-3480.0
 23
-2499.679874915184
 33
0.0
  0
SOLID
  5
7CC
  8
0_INFO
  6
CONTINUOUS
 62
     4
 10
-3480.0
 20
-2501.679874915184
 30
0.0
 11
-3480.0
 21
-2499.679874915184
 31
0.0
 12
-3450.0
 22
-2501.679874915184
 32
0.0
 13
-3450.0
 23
-2501.679874915184
 33
0.0
  0
SOLID
  5
7CD
  8
0_INFO
  6
CONTINUOUS
 62
     4
 10
-3450.0
 20
-2501.679874915184
 30
0.0
 11
-3480.0
 21
-2499.679874915184
 31
0.0
 12
-3450.0
 22
-2499.679874915184
 32
0.0
 13
-3450.0
 23
-2499.679874915184
 33
0.0
  0
SOLID
  5
7CE
  8
0_INFO
  6
CONTINUOUS
 62
     4
 10
-3450.0
 20
-2501.679874915184
 30
0.0
 11
-3450.0
 21
-2499.679874915184
 31
0.0
 12
-3448.0
 22
-2551.679874915185
 32
0.0
 13
-3448.0
 23
-2551.679874915185
 33
0.0
  0
SOLID
  5
7CF
  8
0_INFO
  6
CONTINUOUS
 62
     4
 10
-3448.0
 20
-2551.679874915185
 30
0.0
 11
-3450.0
 21
-2499.679874915184
 31
0.0
 12
-3448.0
 22
-2499.679874915184
 32
0.0
 13
-3448.0
 23
-2499.679874915184
 33
0.0
  0
SOLID
  5
7D0
  8
0_INFO
  6
CONTINUOUS
 62
     4
 10
-3480.0
 20
-2551.679874915185
 30
0.0
 11
-3482.0
 21
-2499.679874915184
 31
0.0
 12
-3480.0
 22
-2501.679874915184
 32
0.0
 13
-3480.0
 23
-2501.679874915184
 33
0.0
  0
SOLID
  5
7D1
  8
0_INFO
  6
CONTINUOUS
 62
     4
 10
-3450.0
 20
-2551.679874915185
 30
0.0
 11
-3450.0
 21
-2501.679874915184
 31
0.0
 12
-3448.0
 22
-2551.679874915185
 32
0.0
 13
-3448.0
 23
-2551.679874915185
 33
0.0
  0
ENDBLK
  5
8A9
  8
0
  0
BLOCK
  8
0
  2
*U11
 70
     1
 10
0.0
 20
0.0
 30
0.0
  3
*U11
  1

  0
SOLID
  5
7D3
  8
0_INFO
  6
CONTINUOUS
 62
     4
 10
3488.0
 20
-2551.679874915185
 30
0.0
 11
3488.0
 21
-2499.679874915184
 31
0.0
 12
3490.0
 22
-2551.679874915185
 32
0.0
 13
3490.0
 23
-2551.679874915185
 33
0.0
210
0.0
220
0.0
230
-1.0
  0
SOLID
  5
7D4
  8
0_INFO
  6
CONTINUOUS
 62
     4
 10
3490.0
 20
-2501.679874915184
 30
0.0
 11
3488.0
 21
-2499.679874915184
 31
0.0
 12
3490.0
 22
-2499.679874915184
 32
0.0
 13
3490.0
 23
-2499.679874915184
 33
0.0
210
0.0
220
0.0
230
-1.0
  0
SOLID
  5
7D5
  8
0_INFO
  6
CONTINUOUS
 62
     4
 10
3490.0
 20
-2501.679874915184
 30
0.0
 11
3490.0
 21
-2499.679874915184
 31
0.0
 12
3520.0
 22
-2501.679874915184
 32
0.0
 13
3520.0
 23
-2501.679874915184
 33
0.0
210
0.0
220
0.0
230
-1.0
  0
SOLID
  5
7D6
  8
0_INFO
  6
CONTINUOUS
 62
     4
 10
3520.0
 20
-2501.679874915184
 30
0.0
 11
3490.0
 21
-2499.679874915184
 31
0.0
 12
3520.0
 22
-2499.679874915184
 32
0.0
 13
3520.0
 23
-2499.679874915184
 33
0.0
210
0.0
220
0.0
230
-1.0
  0
SOLID
  5
7D7
  8
0_INFO
  6
CONTINUOUS
 62
     4
 10
3520.0
 20
-2501.679874915184
 30
0.0
 11
3520.0
 21
-2499.679874915184
 31
0.0
 12
3522.0
 22
-2551.679874915185
 32
0.0
 13
3522.0
 23
-2551.679874915185
 33
0.0
210
0.0
220
0.0
230
-1.0
  0
SOLID
  5
7D8
  8
0_INFO
  6
CONTINUOUS
 62
     4
 10
3522.0
 20
-2551.679874915185
 30
0.0
 11
3520.0
 21
-2499.679874915184
 31
0.0
 12
3522.0
 22
-2499.679874915184
 32
0.0
 13
3522.0
 23
-2499.679874915184
 33
0.0
210
0.0
220
0.0
230
-1.0
  0
SOLID
  5
7D9
  8
0_INFO
  6
CONTINUOUS
 62
     4
 10
3490.0
 20
-2551.679874915185
 30
0.0
 11
3488.0
 21
-2499.679874915184
 31
0.0
 12
3490.0
 22
-2501.679874915184
 32
0.0
 13
3490.0
 23
-2501.679874915184
 33
0.0
210
0.0
220
0.0
230
-1.0
  0
SOLID
  5
7DA
  8
0_INFO
  6
CONTINUOUS
 62
     4
 10
3520.0
 20
-2551.679874915185
 30
0.0
 11
3520.0
 21
-2501.679874915184
 31
0.0
 12
3522.0
 22
-2551.679874915185
 32
0.0
 13
3522.0
 23
-2551.679874915185
 33
0.0
210
0.0
220
0.0
230
-1.0
  0
ENDBLK
  5
8AB
  8
0
  0
BLOCK
  8
0
  2
*U12
 70
     1
 10
0.0
 20
0.0
 30
0.0
  3
*U12
  1

  0
SOLID
  5
7DC
  8
0_INFO
  6
CONTINUOUS
 62
     4
 10
-3562.0
 20
-2551.679874915185
 30
0.0
 11
-3562.0
 21
-2499.679874915184
 31
0.0
 12
-3560.0
 22
-2551.679874915185
 32
0.0
 13
-3560.0
 23
-2551.679874915185
 33
0.0
  0
SOLID
  5
7DD
  8
0_INFO
  6
CONTINUOUS
 62
     4
 10
-3560.0
 20
-2501.679874915184
 30
0.0
 11
-3562.0
 21
-2499.679874915184
 31
0.0
 12
-3560.0
 22
-2499.679874915184
 32
0.0
 13
-3560.0
 23
-2499.679874915184
 33
0.0
  0
SOLID
  5
7DE
  8
0_INFO
  6
CONTINUOUS
 62
     4
 10
-3560.0
 20
-2501.679874915184
 30
0.0
 11
-3560.0
 21
-2499.679874915184
 31
0.0
 12
-3530.0
 22
-2501.679874915184
 32
0.0
 13
-3530.0
 23
-2501.679874915184
 33
0.0
  0
SOLID
  5
7DF
  8
0_INFO
  6
CONTINUOUS
 62
     4
 10
-3530.0
 20
-2501.679874915184
 30
0.0
 11
-3560.0
 21
-2499.679874915184
 31
0.0
 12
-3530.0
 22
-2499.679874915184
 32
0.0
 13
-3530.0
 23
-2499.679874915184
 33
0.0
  0
SOLID
  5
7E0
  8
0_INFO
  6
CONTINUOUS
 62
     4
 10
-3530.0
 20
-2501.679874915184
 30
0.0
 11
-3530.0
 21
-2499.679874915184
 31
0.0
 12
-3528.0
 22
-2551.679874915185
 32
0.0
 13
-3528.0
 23
-2551.679874915185
 33
0.0
  0
SOLID
  5
7E1
  8
0_INFO
  6
CONTINUOUS
 62
     4
 10
-3528.0
 20
-2551.679874915185
 30
0.0
 11
-3530.0
 21
-2499.679874915184
 31
0.0
 12
-3528.0
 22
-2499.679874915184
 32
0.0
 13
-3528.0
 23
-2499.679874915184
 33
0.0
  0
SOLID
  5
7E2
  8
0_INFO
  6
CONTINUOUS
 62
     4
 10
-3560.0
 20
-2551.679874915185
 30
0.0
 11
-3562.0
 21
-2499.679874915184
 31
0.0
 12
-3560.0
 22
-2501.679874915184
 32
0.0
 13
-3560.0
 23
-2501.679874915184
 33
0.0
  0
SOLID
  5
7E3
  8
0_INFO
  6
CONTINUOUS
 62
     4
 10
-3530.0
 20
-2551.679874915185
 30
0.0
 11
-3530.0
 21
-2501.679874915184
 31
0.0
 12
-3528.0
 22
-2551.679874915185
 32
0.0
 13
-3528.0
 23
-2551.679874915185
 33
0.0
  0
ENDBLK
  5
8AD
  8
0
  0
BLOCK
  8
0
  2
*U13
 70
     1
 10
0.0
 20
0.0
 30
0.0
  3
*U13
  1

  0
SOLID
  5
7E5
  8
0_INFO
  6
CONTINUOUS
 62
     4
 10
3568.0
 20
-2551.679874915185
 30
0.0
 11
3568.0
 21
-2499.679874915184
 31
0.0
 12
3570.0
 22
-2551.679874915185
 32
0.0
 13
3570.0
 23
-2551.679874915185
 33
0.0
210
0.0
220
0.0
230
-1.0
  0
SOLID
  5
7E6
  8
0_INFO
  6
CONTINUOUS
 62
     4
 10
3570.0
 20
-2501.679874915184
 30
0.0
 11
3568.0
 21
-2499.679874915184
 31
0.0
 12
3570.0
 22
-2499.679874915184
 32
0.0
 13
3570.0
 23
-2499.679874915184
 33
0.0
210
0.0
220
0.0
230
-1.0
  0
SOLID
  5
7E7
  8
0_INFO
  6
CONTINUOUS
 62
     4
 10
3570.0
 20
-2501.679874915184
 30
0.0
 11
3570.0
 21
-2499.679874915184
 31
0.0
 12
3600.0
 22
-2501.679874915184
 32
0.0
 13
3600.0
 23
-2501.679874915184
 33
0.0
210
0.0
220
0.0
230
-1.0
  0
SOLID
  5
7E8
  8
0_INFO
  6
CONTINUOUS
 62
     4
 10
3600.0
 20
-2501.679874915184
 30
0.0
 11
3570.0
 21
-2499.679874915184
 31
0.0
 12
3600.0
 22
-2499.679874915184
 32
0.0
 13
3600.0
 23
-2499.679874915184
 33
0.0
210
0.0
220
0.0
230
-1.0
  0
SOLID
  5
7E9
  8
0_INFO
  6
CONTINUOUS
 62
     4
 10
3600.0
 20
-2501.679874915184
 30
0.0
 11
3600.0
 21
-2499.679874915184
 31
0.0
 12
3602.0
 22
-2551.679874915185
 32
0.0
 13
3602.0
 23
-2551.679874915185
 33
0.0
210
0.0
220
0.0
230
-1.0
  0
SOLID
  5
7EA
  8
0_INFO
  6
CONTINUOUS
 62
     4
 10
3602.0
 20
-2551.679874915185
 30
0.0
 11
3600.0
 21
-2499.679874915184
 31
0.0
 12
3602.0
 22
-2499.679874915184
 32
0.0
 13
3602.0
 23
-2499.679874915184
 33
0.0
210
0.0
220
0.0
230
-1.0
  0
SOLID
  5
7EB
  8
0_INFO
  6
CONTINUOUS
 62
     4
 10
3570.0
 20
-2551.679874915185
 30
0.0
 11
3568.0
 21
-2499.679874915184
 31
0.0
 12
3570.0
 22
-2501.679874915184
 32
0.0
 13
3570.0
 23
-2501.679874915184
 33
0.0
210
0.0
220
0.0
230
-1.0
  0
SOLID
  5
7EC
  8
0_INFO
  6
CONTINUOUS
 62
     4
 10
3600.0
 20
-2551.679874915185
 30
0.0
 11
3600.0
 21
-2501.679874915184
 31
0.0
 12
3602.0
 22
-2551.679874915185
 32
0.0
 13
3602.0
 23
-2551.679874915185
 33
0.0
210
0.0
220
0.0
230
-1.0
  0
ENDBLK
  5
8AF
  8
0
  0
BLOCK
  8
0
  2
*U14
 70
     1
 10
0.0
 20
0.0
 30
0.0
  3
*U14
  1

  0
SOLID
  5
7EE
  8
0_INFO
  6
CONTINUOUS
 62
     4
 10
-3642.0
 20
-2551.679874915185
 30
0.0
 11
-3642.0
 21
-2499.679874915184
 31
0.0
 12
-3640.0
 22
-2551.679874915185
 32
0.0
 13
-3640.0
 23
-2551.679874915185
 33
0.0
  0
SOLID
  5
7EF
  8
0_INFO
  6
CONTINUOUS
 62
     4
 10
-3640.0
 20
-2501.679874915184
 30
0.0
 11
-3642.0
 21
-2499.679874915184
 31
0.0
 12
-3640.0
 22
-2499.679874915184
 32
0.0
 13
-3640.0
 23
-2499.679874915184
 33
0.0
  0
SOLID
  5
7F0
  8
0_INFO
  6
CONTINUOUS
 62
     4
 10
-3640.0
 20
-2501.679874915184
 30
0.0
 11
-3640.0
 21
-2499.679874915184
 31
0.0
 12
-3610.0
 22
-2501.679874915184
 32
0.0
 13
-3610.0
 23
-2501.679874915184
 33
0.0
  0
SOLID
  5
7F1
  8
0_INFO
  6
CONTINUOUS
 62
     4
 10
-3610.0
 20
-2501.679874915184
 30
0.0
 11
-3640.0
 21
-2499.679874915184
 31
0.0
 12
-3610.0
 22
-2499.679874915184
 32
0.0
 13
-3610.0
 23
-2499.679874915184
 33
0.0
  0
SOLID
  5
7F2
  8
0_INFO
  6
CONTINUOUS
 62
     4
 10
-3610.0
 20
-2501.679874915184
 30
0.0
 11
-3610.0
 21
-2499.679874915184
 31
0.0
 12
-3608.0
 22
-2551.679874915185
 32
0.0
 13
-3608.0
 23
-2551.679874915185
 33
0.0
  0
SOLID
  5
7F3
  8
0_INFO
  6
CONTINUOUS
 62
     4
 10
-3608.0
 20
-2551.679874915185
 30
0.0
 11
-3610.0
 21
-2499.679874915184
 31
0.0
 12
-3608.0
 22
-2499.679874915184
 32
0.0
 13
-3608.0
 23
-2499.679874915184
 33
0.0
  0
SOLID
  5
7F4
  8
0_INFO
  6
CONTINUOUS
 62
     4
 10
-3640.0
 20
-2551.679874915185
 30
0.0
 11
-3642.0
 21
-2499.679874915184
 31
0.0
 12
-3640.0
 22
-2501.679874915184
 32
0.0
 13
-3640.0
 23
-2501.679874915184
 33
0.0
  0
SOLID
  5
7F5
  8
0_INFO
  6
CONTINUOUS
 62
     4
 10
-3610.0
 20
-2551.679874915185
 30
0.0
 11
-3610.0
 21
-2501.679874915184
 31
0.0
 12
-3608.0
 22
-2551.679874915185
 32
0.0
 13
-3608.0
 23
-2551.679874915185
 33
0.0
  0
ENDBLK
  5
8B1
  8
0
  0
BLOCK
  8
0
  2
*U15
 70
     1
 10
0.0
 20
0.0
 30
0.0
  3
*U15
  1

  0
SOLID
  5
7F7
  8
0_INFO
  6
CONTINUOUS
 62
     4
 10
3668.0
 20
-2551.679874915185
 30
0.0
 11
3668.0
 21
-2499.679874915184
 31
0.0
 12
3670.0
 22
-2551.679874915185
 32
0.0
 13
3670.0
 23
-2551.679874915185
 33
0.0
210
0.0
220
0.0
230
-1.0
  0
SOLID
  5
7F8
  8
0_INFO
  6
CONTINUOUS
 62
     4
 10
3670.0
 20
-2501.679874915184
 30
0.0
 11
3668.0
 21
-2499.679874915184
 31
0.0
 12
3670.0
 22
-2499.679874915184
 32
0.0
 13
3670.0
 23
-2499.679874915184
 33
0.0
210
0.0
220
0.0
230
-1.0
  0
SOLID
  5
7F9
  8
0_INFO
  6
CONTINUOUS
 62
     4
 10
3670.0
 20
-2501.679874915184
 30
0.0
 11
3670.0
 21
-2499.679874915184
 31
0.0
 12
3700.0
 22
-2501.679874915184
 32
0.0
 13
3700.0
 23
-2501.679874915184
 33
0.0
210
0.0
220
0.0
230
-1.0
  0
SOLID
  5
7FA
  8
0_INFO
  6
CONTINUOUS
 62
     4
 10
3700.0
 20
-2501.679874915184
 30
0.0
 11
3670.0
 21
-2499.679874915184
 31
0.0
 12
3700.0
 22
-2499.679874915184
 32
0.0
 13
3700.0
 23
-2499.679874915184
 33
0.0
210
0.0
220
0.0
230
-1.0
  0
SOLID
  5
7FB
  8
0_INFO
  6
CONTINUOUS
 62
     4
 10
3700.0
 20
-2501.679874915184
 30
0.0
 11
3700.0
 21
-2499.679874915184
 31
0.0
 12
3702.0
 22
-2551.679874915185
 32
0.0
 13
3702.0
 23
-2551.679874915185
 33
0.0
210
0.0
220
0.0
230
-1.0
  0
SOLID
  5
7FC
  8
0_INFO
  6
CONTINUOUS
 62
     4
 10
3702.0
 20
-2551.679874915185
 30
0.0
 11
3700.0
 21
-2499.679874915184
 31
0.0
 12
3702.0
 22
-2499.679874915184
 32
0.0
 13
3702.0
 23
-2499.679874915184
 33
0.0
210
0.0
220
0.0
230
-1.0
  0
SOLID
  5
7FD
  8
0_INFO
  6
CONTINUOUS
 62
     4
 10
3670.0
 20
-2551.679874915185
 30
0.0
 11
3668.0
 21
-2499.679874915184
 31
0.0
 12
3670.0
 22
-2501.679874915184
 32
0.0
 13
3670.0
 23
-2501.679874915184
 33
0.0
210
0.0
220
0.0
230
-1.0
  0
SOLID
  5
7FE
  8
0_INFO
  6
CONTINUOUS
 62
     4
 10
3700.0
 20
-2551.679874915185
 30
0.0
 11
3700.0
 21
-2501.679874915184
 31
0.0
 12
3702.0
 22
-2551.679874915185
 32
0.0
 13
3702.0
 23
-2551.679874915185
 33
0.0
210
0.0
220
0.0
230
-1.0
  0
ENDBLK
  5
8B3
  8
0
  0
BLOCK
  8
0
  2
*U16
 70
     1
 10
0.0
 20
0.0
 30
0.0
  3
*U16
  1

  0
SOLID
  5
800
  8
0_INFO
  6
CONTINUOUS
 62
     4
 10
-3742.0
 20
-2551.679874915185
 30
0.0
 11
-3742.0
 21
-2499.679874915184
 31
0.0
 12
-3740.0
 22
-2551.679874915185
 32
0.0
 13
-3740.0
 23
-2551.679874915185
 33
0.0
  0
SOLID
  5
801
  8
0_INFO
  6
CONTINUOUS
 62
     4
 10
-3740.0
 20
-2501.679874915184
 30
0.0
 11
-3742.0
 21
-2499.679874915184
 31
0.0
 12
-3740.0
 22
-2499.679874915184
 32
0.0
 13
-3740.0
 23
-2499.679874915184
 33
0.0
  0
SOLID
  5
802
  8
0_INFO
  6
CONTINUOUS
 62
     4
 10
-3740.0
 20
-2501.679874915184
 30
0.0
 11
-3740.0
 21
-2499.679874915184
 31
0.0
 12
-3710.0
 22
-2501.679874915184
 32
0.0
 13
-3710.0
 23
-2501.679874915184
 33
0.0
  0
SOLID
  5
803
  8
0_INFO
  6
CONTINUOUS
 62
     4
 10
-3710.0
 20
-2501.679874915184
 30
0.0
 11
-3740.0
 21
-2499.679874915184
 31
0.0
 12
-3710.0
 22
-2499.679874915184
 32
0.0
 13
-3710.0
 23
-2499.679874915184
 33
0.0
  0
SOLID
  5
804
  8
0_INFO
  6
CONTINUOUS
 62
     4
 10
-3710.0
 20
-2501.679874915184
 30
0.0
 11
-3710.0
 21
-2499.679874915184
 31
0.0
 12
-3708.0
 22
-2551.679874915185
 32
0.0
 13
-3708.0
 23
-2551.679874915185
 33
0.0
  0
SOLID
  5
805
  8
0_INFO
  6
CONTINUOUS
 62
     4
 10
-3708.0
 20
-2551.679874915185
 30
0.0
 11
-3710.0
 21
-2499.679874915184
 31
0.0
 12
-3708.0
 22
-2499.679874915184
 32
0.0
 13
-3708.0
 23
-2499.679874915184
 33
0.0
  0
SOLID
  5
806
  8
0_INFO
  6
CONTINUOUS
 62
     4
 10
-3740.0
 20
-2551.679874915185
 30
0.0
 11
-3742.0
 21
-2499.679874915184
 31
0.0
 12
-3740.0
 22
-2501.679874915184
 32
0.0
 13
-3740.0
 23
-2501.679874915184
 33
0.0
  0
SOLID
  5
807
  8
0_INFO
  6
CONTINUOUS
 62
     4
 10
-3710.0
 20
-2551.679874915185
 30
0.0
 11
-3710.0
 21
-2501.679874915184
 31
0.0
 12
-3708.0
 22
-2551.679874915185
 32
0.0
 13
-3708.0
 23
-2551.679874915185
 33
0.0
  0
ENDBLK
  5
8B5
  8
0
  0
BLOCK
  8
0
  2
*U17
 70
     1
 10
0.0
 20
0.0
 30
0.0
  3
*U17
  1

  0
SOLID
  5
809
  8
0_INFO
  6
CONTINUOUS
 62
     4
 10
3768.0
 20
-2551.679874915185
 30
0.0
 11
3768.0
 21
-2499.679874915184
 31
0.0
 12
3770.0
 22
-2551.679874915185
 32
0.0
 13
3770.0
 23
-2551.679874915185
 33
0.0
210
0.0
220
0.0
230
-1.0
  0
SOLID
  5
80A
  8
0_INFO
  6
CONTINUOUS
 62
     4
 10
3770.0
 20
-2501.679874915184
 30
0.0
 11
3768.0
 21
-2499.679874915184
 31
0.0
 12
3770.0
 22
-2499.679874915184
 32
0.0
 13
3770.0
 23
-2499.679874915184
 33
0.0
210
0.0
220
0.0
230
-1.0
  0
SOLID
  5
80B
  8
0_INFO
  6
CONTINUOUS
 62
     4
 10
3770.0
 20
-2501.679874915184
 30
0.0
 11
3770.0
 21
-2499.679874915184
 31
0.0
 12
3800.0
 22
-2501.679874915184
 32
0.0
 13
3800.0
 23
-2501.679874915184
 33
0.0
210
0.0
220
0.0
230
-1.0
  0
SOLID
  5
80C
  8
0_INFO
  6
CONTINUOUS
 62
     4
 10
3800.0
 20
-2501.679874915184
 30
0.0
 11
3770.0
 21
-2499.679874915184
 31
0.0
 12
3800.0
 22
-2499.679874915184
 32
0.0
 13
3800.0
 23
-2499.679874915184
 33
0.0
210
0.0
220
0.0
230
-1.0
  0
SOLID
  5
80D
  8
0_INFO
  6
CONTINUOUS
 62
     4
 10
3800.0
 20
-2501.679874915184
 30
0.0
 11
3800.0
 21
-2499.679874915184
 31
0.0
 12
3802.0
 22
-2551.679874915185
 32
0.0
 13
3802.0
 23
-2551.679874915185
 33
0.0
210
0.0
220
0.0
230
-1.0
  0
SOLID
  5
80E
  8
0_INFO
  6
CONTINUOUS
 62
     4
 10
3802.0
 20
-2551.679874915185
 30
0.0
 11
3800.0
 21
-2499.679874915184
 31
0.0
 12
3802.0
 22
-2499.679874915184
 32
0.0
 13
3802.0
 23
-2499.679874915184
 33
0.0
210
0.0
220
0.0
230
-1.0
  0
SOLID
  5
80F
  8
0_INFO
  6
CONTINUOUS
 62
     4
 10
3770.0
 20
-2551.679874915185
 30
0.0
 11
3768.0
 21
-2499.679874915184
 31
0.0
 12
3770.0
 22
-2501.679874915184
 32
0.0
 13
3770.0
 23
-2501.679874915184
 33
0.0
210
0.0
220
0.0
230
-1.0
  0
SOLID
  5
810
  8
0_INFO
  6
CONTINUOUS
 62
     4
 10
3800.0
 20
-2551.679874915185
 30
0.0
 11
3800.0
 21
-2501.679874915184
 31
0.0
 12
3802.0
 22
-2551.679874915185
 32
0.0
 13
3802.0
 23
-2551.679874915185
 33
0.0
210
0.0
220
0.0
230
-1.0
  0
ENDBLK
  5
8B7
  8
0
  0
BLOCK
  8
0
  2
*U18
 70
     1
 10
0.0
 20
0.0
 30
0.0
  3
*U18
  1

  0
SOLID
  5
812
  8
0_INFO
  6
CONTINUOUS
 62
     4
 10
-3842.0
 20
-2551.679874915185
 30
0.0
 11
-3842.0
 21
-2499.679874915184
 31
0.0
 12
-3840.0
 22
-2551.679874915185
 32
0.0
 13
-3840.0
 23
-2551.679874915185
 33
0.0
  0
SOLID
  5
813
  8
0_INFO
  6
CONTINUOUS
 62
     4
 10
-3840.0
 20
-2501.679874915184
 30
0.0
 11
-3842.0
 21
-2499.679874915184
 31
0.0
 12
-3840.0
 22
-2499.679874915184
 32
0.0
 13
-3840.0
 23
-2499.679874915184
 33
0.0
  0
SOLID
  5
814
  8
0_INFO
  6
CONTINUOUS
 62
     4
 10
-3840.0
 20
-2501.679874915184
 30
0.0
 11
-3840.0
 21
-2499.679874915184
 31
0.0
 12
-3810.0
 22
-2501.679874915184
 32
0.0
 13
-3810.0
 23
-2501.679874915184
 33
0.0
  0
SOLID
  5
815
  8
0_INFO
  6
CONTINUOUS
 62
     4
 10
-3810.0
 20
-2501.679874915184
 30
0.0
 11
-3840.0
 21
-2499.679874915184
 31
0.0
 12
-3810.0
 22
-2499.679874915184
 32
0.0
 13
-3810.0
 23
-2499.679874915184
 33
0.0
  0
SOLID
  5
816
  8
0_INFO
  6
CONTINUOUS
 62
     4
 10
-3810.0
 20
-2501.679874915184
 30
0.0
 11
-3810.0
 21
-2499.679874915184
 31
0.0
 12
-3808.0
 22
-2551.679874915185
 32
0.0
 13
-3808.0
 23
-2551.679874915185
 33
0.0
  0
SOLID
  5
817
  8
0_INFO
  6
CONTINUOUS
 62
     4
 10
-3808.0
 20
-2551.679874915185
 30
0.0
 11
-3810.0
 21
-2499.679874915184
 31
0.0
 12
-3808.0
 22
-2499.679874915184
 32
0.0
 13
-3808.0
 23
-2499.679874915184
 33
0.0
  0
SOLID
  5
818
  8
0_INFO
  6
CONTINUOUS
 62
     4
 10
-3840.0
 20
-2551.679874915185
 30
0.0
 11
-3842.0
 21
-2499.679874915184
 31
0.0
 12
-3840.0
 22
-2501.679874915184
 32
0.0
 13
-3840.0
 23
-2501.679874915184
 33
0.0
  0
SOLID
  5
819
  8
0_INFO
  6
CONTINUOUS
 62
     4
 10
-3810.0
 20
-2551.679874915185
 30
0.0
 11
-3810.0
 21
-2501.679874915184
 31
0.0
 12
-3808.0
 22
-2551.679874915185
 32
0.0
 13
-3808.0
 23
-2551.679874915185
 33
0.0
  0
ENDBLK
  5
8B9
  8
0
  0
BLOCK
  8
0
  2
*U19
 70
     1
 10
0.0
 20
0.0
 30
0.0
  3
*U19
  1

  0
SOLID
  5
81B
  8
0_INFO
  6
CONTINUOUS
 62
    30
 10
-3842.000000000001
 20
-2654.679874915184
 30
0.0
 11
-3842.000000000001
 21
-2594.679874915184
 31
0.0
 12
-3840.000000000001
 22
-2654.679874915184
 32
0.0
 13
-3840.000000000001
 23
-2654.679874915184
 33
0.0
  0
SOLID
  5
81C
  8
0_INFO
  6
CONTINUOUS
 62
    30
 10
-3840.000000000001
 20
-2596.679874915184
 30
0.0
 11
-3842.000000000001
 21
-2594.679874915184
 31
0.0
 12
-3840.000000000001
 22
-2594.679874915184
 32
0.0
 13
-3840.000000000001
 23
-2594.679874915184
 33
0.0
  0
SOLID
  5
81D
  8
0_INFO
  6
CONTINUOUS
 62
    30
 10
-3840.000000000001
 20
-2596.679874915184
 30
0.0
 11
-3840.000000000001
 21
-2594.679874915184
 31
0.0
 12
-3810.000000000001
 22
-2596.679874915184
 32
0.0
 13
-3810.000000000001
 23
-2596.679874915184
 33
0.0
  0
SOLID
  5
81E
  8
0_INFO
  6
CONTINUOUS
 62
    30
 10
-3810.000000000001
 20
-2596.679874915184
 30
0.0
 11
-3840.000000000001
 21
-2594.679874915184
 31
0.0
 12
-3810.000000000001
 22
-2594.679874915184
 32
0.0
 13
-3810.000000000001
 23
-2594.679874915184
 33
0.0
  0
SOLID
  5
81F
  8
0_INFO
  6
CONTINUOUS
 62
    30
 10
-3810.000000000001
 20
-2596.679874915184
 30
0.0
 11
-3810.000000000001
 21
-2594.679874915184
 31
0.0
 12
-3808.0
 22
-2654.679874915184
 32
0.0
 13
-3808.0
 23
-2654.679874915184
 33
0.0
  0
SOLID
  5
820
  8
0_INFO
  6
CONTINUOUS
 62
    30
 10
-3808.0
 20
-2654.679874915184
 30
0.0
 11
-3810.000000000001
 21
-2594.679874915184
 31
0.0
 12
-3808.0
 22
-2594.679874915184
 32
0.0
 13
-3808.0
 23
-2594.679874915184
 33
0.0
  0
SOLID
  5
821
  8
0_INFO
  6
CONTINUOUS
 62
    30
 10
-3840.000000000001
 20
-2654.679874915184
 30
0.0
 11
-3842.000000000001
 21
-2594.679874915184
 31
0.0
 12
-3840.000000000001
 22
-2596.679874915184
 32
0.0
 13
-3840.000000000001
 23
-2596.679874915184
 33
0.0
  0
SOLID
  5
822
  8
0_INFO
  6
CONTINUOUS
 62
    30
 10
-3810.000000000001
 20
-2654.679874915185
 30
0.0
 11
-3810.000000000001
 21
-2596.679874915184
 31
0.0
 12
-3808.0
 22
-2654.679874915184
 32
0.0
 13
-3808.0
 23
-2654.679874915184
 33
0.0
  0
ENDBLK
  5
8BB
  8
0
  0
BLOCK
  8
0
  2
*U20
 70
     1
 10
0.0
 20
0.0
 30
0.0
  3
*U20
  1

  0
SOLID
  5
824
  8
0_INFO
  6
CONTINUOUS
 62
    30
 10
3768.0
 20
-2654.679874915184
 30
0.0
 11
3768.0
 21
-2594.679874915184
 31
0.0
 12
3770.0
 22
-2654.679874915184
 32
0.0
 13
3770.0
 23
-2654.679874915184
 33
0.0
210
0.0
220
0.0
230
-1.0
  0
SOLID
  5
825
  8
0_INFO
  6
CONTINUOUS
 62
    30
 10
3770.0
 20
-2596.679874915184
 30
0.0
 11
3768.0
 21
-2594.679874915184
 31
0.0
 12
3770.0
 22
-2594.679874915184
 32
0.0
 13
3770.0
 23
-2594.679874915184
 33
0.0
210
0.0
220
0.0
230
-1.0
  0
SOLID
  5
826
  8
0_INFO
  6
CONTINUOUS
 62
    30
 10
3770.0
 20
-2596.679874915184
 30
0.0
 11
3770.0
 21
-2594.679874915184
 31
0.0
 12
3800.0
 22
-2596.679874915184
 32
0.0
 13
3800.0
 23
-2596.679874915184
 33
0.0
210
0.0
220
0.0
230
-1.0
  0
SOLID
  5
827
  8
0_INFO
  6
CONTINUOUS
 62
    30
 10
3800.0
 20
-2596.679874915184
 30
0.0
 11
3770.0
 21
-2594.679874915184
 31
0.0
 12
3800.0
 22
-2594.679874915184
 32
0.0
 13
3800.0
 23
-2594.679874915184
 33
0.0
210
0.0
220
0.0
230
-1.0
  0
SOLID
  5
828
  8
0_INFO
  6
CONTINUOUS
 62
    30
 10
3800.0
 20
-2596.679874915184
 30
0.0
 11
3800.0
 21
-2594.679874915184
 31
0.0
 12
3802.0
 22
-2654.679874915184
 32
0.0
 13
3802.0
 23
-2654.679874915184
 33
0.0
210
0.0
220
0.0
230
-1.0
  0
SOLID
  5
829
  8
0_INFO
  6
CONTINUOUS
 62
    30
 10
3802.0
 20
-2654.679874915184
 30
0.0
 11
3800.0
 21
-2594.679874915184
 31
0.0
 12
3802.0
 22
-2594.679874915184
 32
0.0
 13
3802.0
 23
-2594.679874915184
 33
0.0
210
0.0
220
0.0
230
-1.0
  0
SOLID
  5
82A
  8
0_INFO
  6
CONTINUOUS
 62
    30
 10
3770.0
 20
-2654.679874915184
 30
0.0
 11
3768.0
 21
-2594.679874915184
 31
0.0
 12
3770.0
 22
-2596.679874915184
 32
0.0
 13
3770.0
 23
-2596.679874915184
 33
0.0
210
0.0
220
0.0
230
-1.0
  0
SOLID
  5
82B
  8
0_INFO
  6
CONTINUOUS
 62
    30
 10
3800.0
 20
-2654.679874915184
 30
0.0
 11
3800.0
 21
-2596.679874915184
 31
0.0
 12
3802.0
 22
-2654.679874915184
 32
0.0
 13
3802.0
 23
-2654.679874915184
 33
0.0
210
0.0
220
0.0
230
-1.0
  0
ENDBLK
  5
8BD
  8
0
  0
BLOCK
  8
0
  2
*U21
 70
     1
 10
0.0
 20
0.0
 30
0.0
  3
*U21
  1

  0
SOLID
  5
82D
  8
0_INFO
  6
CONTINUOUS
 62
    30
 10
-3742.000000000001
 20
-2654.679874915184
 30
0.0
 11
-3742.000000000001
 21
-2594.679874915184
 31
0.0
 12
-3740.000000000001
 22
-2654.679874915184
 32
0.0
 13
-3740.000000000001
 23
-2654.679874915184
 33
0.0
  0
SOLID
  5
82E
  8
0_INFO
  6
CONTINUOUS
 62
    30
 10
-3740.000000000001
 20
-2596.679874915184
 30
0.0
 11
-3742.000000000001
 21
-2594.679874915184
 31
0.0
 12
-3740.000000000001
 22
-2594.679874915184
 32
0.0
 13
-3740.000000000001
 23
-2594.679874915184
 33
0.0
  0
SOLID
  5
82F
  8
0_INFO
  6
CONTINUOUS
 62
    30
 10
-3740.000000000001
 20
-2596.679874915184
 30
0.0
 11
-3740.000000000001
 21
-2594.679874915184
 31
0.0
 12
-3710.000000000001
 22
-2596.679874915184
 32
0.0
 13
-3710.000000000001
 23
-2596.679874915184
 33
0.0
  0
SOLID
  5
830
  8
0_INFO
  6
CONTINUOUS
 62
    30
 10
-3710.000000000001
 20
-2596.679874915184
 30
0.0
 11
-3740.000000000001
 21
-2594.679874915184
 31
0.0
 12
-3710.000000000001
 22
-2594.679874915184
 32
0.0
 13
-3710.000000000001
 23
-2594.679874915184
 33
0.0
  0
SOLID
  5
831
  8
0_INFO
  6
CONTINUOUS
 62
    30
 10
-3710.000000000001
 20
-2596.679874915184
 30
0.0
 11
-3710.000000000001
 21
-2594.679874915184
 31
0.0
 12
-3708.0
 22
-2654.679874915184
 32
0.0
 13
-3708.0
 23
-2654.679874915184
 33
0.0
  0
SOLID
  5
832
  8
0_INFO
  6
CONTINUOUS
 62
    30
 10
-3708.0
 20
-2654.679874915184
 30
0.0
 11
-3710.000000000001
 21
-2594.679874915184
 31
0.0
 12
-3708.0
 22
-2594.679874915184
 32
0.0
 13
-3708.0
 23
-2594.679874915184
 33
0.0
  0
SOLID
  5
833
  8
0_INFO
  6
CONTINUOUS
 62
    30
 10
-3740.000000000001
 20
-2654.679874915184
 30
0.0
 11
-3742.000000000001
 21
-2594.679874915184
 31
0.0
 12
-3740.000000000001
 22
-2596.679874915184
 32
0.0
 13
-3740.000000000001
 23
-2596.679874915184
 33
0.0
  0
SOLID
  5
834
  8
0_INFO
  6
CONTINUOUS
 62
    30
 10
-3710.000000000001
 20
-2654.679874915184
 30
0.0
 11
-3710.000000000001
 21
-2596.679874915184
 31
0.0
 12
-3708.0
 22
-2654.679874915184
 32
0.0
 13
-3708.0
 23
-2654.679874915184
 33
0.0
  0
ENDBLK
  5
8BF
  8
0
  0
BLOCK
  8
0
  2
*U22
 70
     1
 10
0.0
 20
0.0
 30
0.0
  3
*U22
  1

  0
SOLID
  5
836
  8
0_INFO
  6
CONTINUOUS
 62
    30
 10
3668.0
 20
-2654.679874915184
 30
0.0
 11
3668.0
 21
-2594.679874915184
 31
0.0
 12
3670.0
 22
-2654.679874915184
 32
0.0
 13
3670.0
 23
-2654.679874915184
 33
0.0
210
0.0
220
0.0
230
-1.0
  0
SOLID
  5
837
  8
0_INFO
  6
CONTINUOUS
 62
    30
 10
3670.0
 20
-2596.679874915184
 30
0.0
 11
3668.0
 21
-2594.679874915184
 31
0.0
 12
3670.0
 22
-2594.679874915184
 32
0.0
 13
3670.0
 23
-2594.679874915184
 33
0.0
210
0.0
220
0.0
230
-1.0
  0
SOLID
  5
838
  8
0_INFO
  6
CONTINUOUS
 62
    30
 10
3670.0
 20
-2596.679874915184
 30
0.0
 11
3670.0
 21
-2594.679874915184
 31
0.0
 12
3700.0
 22
-2596.679874915184
 32
0.0
 13
3700.0
 23
-2596.679874915184
 33
0.0
210
0.0
220
0.0
230
-1.0
  0
SOLID
  5
839
  8
0_INFO
  6
CONTINUOUS
 62
    30
 10
3700.0
 20
-2596.679874915184
 30
0.0
 11
3670.0
 21
-2594.679874915184
 31
0.0
 12
3700.0
 22
-2594.679874915184
 32
0.0
 13
3700.0
 23
-2594.679874915184
 33
0.0
210
0.0
220
0.0
230
-1.0
  0
SOLID
  5
83A
  8
0_INFO
  6
CONTINUOUS
 62
    30
 10
3700.0
 20
-2596.679874915184
 30
0.0
 11
3700.0
 21
-2594.679874915184
 31
0.0
 12
3702.0
 22
-2654.679874915184
 32
0.0
 13
3702.0
 23
-2654.679874915184
 33
0.0
210
0.0
220
0.0
230
-1.0
  0
SOLID
  5
83B
  8
0_INFO
  6
CONTINUOUS
 62
    30
 10
3702.0
 20
-2654.679874915184
 30
0.0
 11
3700.0
 21
-2594.679874915184
 31
0.0
 12
3702.0
 22
-2594.679874915184
 32
0.0
 13
3702.0
 23
-2594.679874915184
 33
0.0
210
0.0
220
0.0
230
-1.0
  0
SOLID
  5
83C
  8
0_INFO
  6
CONTINUOUS
 62
    30
 10
3670.0
 20
-2654.679874915184
 30
0.0
 11
3668.0
 21
-2594.679874915184
 31
0.0
 12
3670.0
 22
-2596.679874915184
 32
0.0
 13
3670.0
 23
-2596.679874915184
 33
0.0
210
0.0
220
0.0
230
-1.0
  0
SOLID
  5
83D
  8
0_INFO
  6
CONTINUOUS
 62
    30
 10
3700.0
 20
-2654.679874915184
 30
0.0
 11
3700.0
 21
-2596.679874915184
 31
0.0
 12
3702.0
 22
-2654.679874915184
 32
0.0
 13
3702.0
 23
-2654.679874915184
 33
0.0
210
0.0
220
0.0
230
-1.0
  0
ENDBLK
  5
8C1
  8
0
  0
BLOCK
  8
0
  2
*U23
 70
     1
 10
0.0
 20
0.0
 30
0.0
  3
*U23
  1

  0
SOLID
  5
83F
  8
0_INFO
  6
CONTINUOUS
 62
    30
 10
-3642.000000000001
 20
-2654.679874915184
 30
0.0
 11
-3642.000000000001
 21
-2594.679874915184
 31
0.0
 12
-3640.000000000001
 22
-2654.679874915184
 32
0.0
 13
-3640.000000000001
 23
-2654.679874915184
 33
0.0
  0
SOLID
  5
840
  8
0_INFO
  6
CONTINUOUS
 62
    30
 10
-3640.000000000001
 20
-2596.679874915184
 30
0.0
 11
-3642.000000000001
 21
-2594.679874915184
 31
0.0
 12
-3640.000000000001
 22
-2594.679874915184
 32
0.0
 13
-3640.000000000001
 23
-2594.679874915184
 33
0.0
  0
SOLID
  5
841
  8
0_INFO
  6
CONTINUOUS
 62
    30
 10
-3640.000000000001
 20
-2596.679874915184
 30
0.0
 11
-3640.000000000001
 21
-2594.679874915184
 31
0.0
 12
-3610.000000000001
 22
-2596.679874915184
 32
0.0
 13
-3610.000000000001
 23
-2596.679874915184
 33
0.0
  0
SOLID
  5
842
  8
0_INFO
  6
CONTINUOUS
 62
    30
 10
-3610.000000000001
 20
-2596.679874915184
 30
0.0
 11
-3640.000000000001
 21
-2594.679874915184
 31
0.0
 12
-3610.000000000001
 22
-2594.679874915184
 32
0.0
 13
-3610.000000000001
 23
-2594.679874915184
 33
0.0
  0
SOLID
  5
843
  8
0_INFO
  6
CONTINUOUS
 62
    30
 10
-3610.000000000001
 20
-2596.679874915184
 30
0.0
 11
-3610.000000000001
 21
-2594.679874915184
 31
0.0
 12
-3608.0
 22
-2654.679874915184
 32
0.0
 13
-3608.0
 23
-2654.679874915184
 33
0.0
  0
SOLID
  5
844
  8
0_INFO
  6
CONTINUOUS
 62
    30
 10
-3608.0
 20
-2654.679874915184
 30
0.0
 11
-3610.000000000001
 21
-2594.679874915184
 31
0.0
 12
-3608.0
 22
-2594.679874915184
 32
0.0
 13
-3608.0
 23
-2594.679874915184
 33
0.0
  0
SOLID
  5
845
  8
0_INFO
  6
CONTINUOUS
 62
    30
 10
-3640.000000000001
 20
-2654.679874915184
 30
0.0
 11
-3642.000000000001
 21
-2594.679874915184
 31
0.0
 12
-3640.000000000001
 22
-2596.679874915184
 32
0.0
 13
-3640.000000000001
 23
-2596.679874915184
 33
0.0
  0
SOLID
  5
846
  8
0_INFO
  6
CONTINUOUS
 62
    30
 10
-3610.000000000001
 20
-2654.679874915184
 30
0.0
 11
-3610.000000000001
 21
-2596.679874915184
 31
0.0
 12
-3608.0
 22
-2654.679874915184
 32
0.0
 13
-3608.0
 23
-2654.679874915184
 33
0.0
  0
ENDBLK
  5
8C3
  8
0
  0
BLOCK
  8
0
  2
*U24
 70
     1
 10
0.0
 20
0.0
 30
0.0
  3
*U24
  1

  0
SOLID
  5
848
  8
0_INFO
  6
CONTINUOUS
 62
    30
 10
3568.0
 20
-2654.679874915184
 30
0.0
 11
3568.0
 21
-2594.679874915184
 31
0.0
 12
3570.0
 22
-2654.679874915184
 32
0.0
 13
3570.0
 23
-2654.679874915184
 33
0.0
210
0.0
220
0.0
230
-1.0
  0
SOLID
  5
849
  8
0_INFO
  6
CONTINUOUS
 62
    30
 10
3570.0
 20
-2596.679874915183
 30
0.0
 11
3568.0
 21
-2594.679874915184
 31
0.0
 12
3570.0
 22
-2594.679874915184
 32
0.0
 13
3570.0
 23
-2594.679874915184
 33
0.0
210
0.0
220
0.0
230
-1.0
  0
SOLID
  5
84A
  8
0_INFO
  6
CONTINUOUS
 62
    30
 10
3570.0
 20
-2596.679874915183
 30
0.0
 11
3570.0
 21
-2594.679874915184
 31
0.0
 12
3600.0
 22
-2596.679874915184
 32
0.0
 13
3600.0
 23
-2596.679874915184
 33
0.0
210
0.0
220
0.0
230
-1.0
  0
SOLID
  5
84B
  8
0_INFO
  6
CONTINUOUS
 62
    30
 10
3600.0
 20
-2596.679874915184
 30
0.0
 11
3570.0
 21
-2594.679874915184
 31
0.0
 12
3600.0
 22
-2594.679874915184
 32
0.0
 13
3600.0
 23
-2594.679874915184
 33
0.0
210
0.0
220
0.0
230
-1.0
  0
SOLID
  5
84C
  8
0_INFO
  6
CONTINUOUS
 62
    30
 10
3600.0
 20
-2596.679874915184
 30
0.0
 11
3600.0
 21
-2594.679874915184
 31
0.0
 12
3602.0
 22
-2654.679874915184
 32
0.0
 13
3602.0
 23
-2654.679874915184
 33
0.0
210
0.0
220
0.0
230
-1.0
  0
SOLID
  5
84D
  8
0_INFO
  6
CONTINUOUS
 62
    30
 10
3602.0
 20
-2654.679874915184
 30
0.0
 11
3600.0
 21
-2594.679874915184
 31
0.0
 12
3602.0
 22
-2594.679874915184
 32
0.0
 13
3602.0
 23
-2594.679874915184
 33
0.0
210
0.0
220
0.0
230
-1.0
  0
SOLID
  5
84E
  8
0_INFO
  6
CONTINUOUS
 62
    30
 10
3570.0
 20
-2654.679874915184
 30
0.0
 11
3568.0
 21
-2594.679874915184
 31
0.0
 12
3570.0
 22
-2596.679874915183
 32
0.0
 13
3570.0
 23
-2596.679874915183
 33
0.0
210
0.0
220
0.0
230
-1.0
  0
SOLID
  5
84F
  8
0_INFO
  6
CONTINUOUS
 62
    30
 10
3600.0
 20
-2654.679874915184
 30
0.0
 11
3600.0
 21
-2596.679874915184
 31
0.0
 12
3602.0
 22
-2654.679874915184
 32
0.0
 13
3602.0
 23
-2654.679874915184
 33
0.0
210
0.0
220
0.0
230
-1.0
  0
ENDBLK
  5
8C5
  8
0
  0
BLOCK
  8
0
  2
*U25
 70
     1
 10
0.0
 20
0.0
 30
0.0
  3
*U25
  1

  0
SOLID
  5
851
  8
0_INFO
  6
CONTINUOUS
 62
    30
 10
-3562.000000000001
 20
-2654.679874915184
 30
0.0
 11
-3562.000000000001
 21
-2594.679874915184
 31
0.0
 12
-3560.000000000001
 22
-2654.679874915184
 32
0.0
 13
-3560.000000000001
 23
-2654.679874915184
 33
0.0
  0
SOLID
  5
852
  8
0_INFO
  6
CONTINUOUS
 62
    30
 10
-3560.000000000001
 20
-2596.679874915184
 30
0.0
 11
-3562.000000000001
 21
-2594.679874915184
 31
0.0
 12
-3560.000000000001
 22
-2594.679874915184
 32
0.0
 13
-3560.000000000001
 23
-2594.679874915184
 33
0.0
  0
SOLID
  5
853
  8
0_INFO
  6
CONTINUOUS
 62
    30
 10
-3560.000000000001
 20
-2596.679874915184
 30
0.0
 11
-3560.000000000001
 21
-2594.679874915184
 31
0.0
 12
-3530.000000000001
 22
-2596.679874915184
 32
0.0
 13
-3530.000000000001
 23
-2596.679874915184
 33
0.0
  0
SOLID
  5
854
  8
0_INFO
  6
CONTINUOUS
 62
    30
 10
-3530.000000000001
 20
-2596.679874915184
 30
0.0
 11
-3560.000000000001
 21
-2594.679874915184
 31
0.0
 12
-3530.000000000001
 22
-2594.679874915184
 32
0.0
 13
-3530.000000000001
 23
-2594.679874915184
 33
0.0
  0
SOLID
  5
855
  8
0_INFO
  6
CONTINUOUS
 62
    30
 10
-3530.000000000001
 20
-2596.679874915184
 30
0.0
 11
-3530.000000000001
 21
-2594.679874915184
 31
0.0
 12
-3528.0
 22
-2654.679874915184
 32
0.0
 13
-3528.0
 23
-2654.679874915184
 33
0.0
  0
SOLID
  5
856
  8
0_INFO
  6
CONTINUOUS
 62
    30
 10
-3528.0
 20
-2654.679874915184
 30
0.0
 11
-3530.000000000001
 21
-2594.679874915184
 31
0.0
 12
-3528.0
 22
-2594.679874915184
 32
0.0
 13
-3528.0
 23
-2594.679874915184
 33
0.0
  0
SOLID
  5
857
  8
0_INFO
  6
CONTINUOUS
 62
    30
 10
-3560.000000000001
 20
-2654.679874915184
 30
0.0
 11
-3562.000000000001
 21
-2594.679874915184
 31
0.0
 12
-3560.000000000001
 22
-2596.679874915184
 32
0.0
 13
-3560.000000000001
 23
-2596.679874915184
 33
0.0
  0
SOLID
  5
858
  8
0_INFO
  6
CONTINUOUS
 62
    30
 10
-3530.000000000001
 20
-2654.679874915184
 30
0.0
 11
-3530.000000000001
 21
-2596.679874915184
 31
0.0
 12
-3528.0
 22
-2654.679874915184
 32
0.0
 13
-3528.0
 23
-2654.679874915184
 33
0.0
  0
ENDBLK
  5
8C7
  8
0
  0
BLOCK
  8
0
  2
*U26
 70
     1
 10
0.0
 20
0.0
 30
0.0
  3
*U26
  1

  0
SOLID
  5
85A
  8
0_INFO
  6
CONTINUOUS
 62
    30
 10
3488.0
 20
-2654.679874915184
 30
0.0
 11
3488.0
 21
-2594.679874915184
 31
0.0
 12
3490.0
 22
-2654.679874915184
 32
0.0
 13
3490.0
 23
-2654.679874915184
 33
0.0
210
0.0
220
0.0
230
-1.0
  0
SOLID
  5
85B
  8
0_INFO
  6
CONTINUOUS
 62
    30
 10
3490.0
 20
-2596.679874915184
 30
0.0
 11
3488.0
 21
-2594.679874915184
 31
0.0
 12
3490.0
 22
-2594.679874915184
 32
0.0
 13
3490.0
 23
-2594.679874915184
 33
0.0
210
0.0
220
0.0
230
-1.0
  0
SOLID
  5
85C
  8
0_INFO
  6
CONTINUOUS
 62
    30
 10
3490.0
 20
-2596.679874915184
 30
0.0
 11
3490.0
 21
-2594.679874915184
 31
0.0
 12
3520.0
 22
-2596.679874915184
 32
0.0
 13
3520.0
 23
-2596.679874915184
 33
0.0
210
0.0
220
0.0
230
-1.0
  0
SOLID
  5
85D
  8
0_INFO
  6
CONTINUOUS
 62
    30
 10
3520.0
 20
-2596.679874915184
 30
0.0
 11
3490.0
 21
-2594.679874915184
 31
0.0
 12
3520.0
 22
-2594.679874915184
 32
0.0
 13
3520.0
 23
-2594.679874915184
 33
0.0
210
0.0
220
0.0
230
-1.0
  0
SOLID
  5
85E
  8
0_INFO
  6
CONTINUOUS
 62
    30
 10
3520.0
 20
-2596.679874915184
 30
0.0
 11
3520.0
 21
-2594.679874915184
 31
0.0
 12
3522.0
 22
-2654.679874915184
 32
0.0
 13
3522.0
 23
-2654.679874915184
 33
0.0
210
0.0
220
0.0
230
-1.0
  0
SOLID
  5
85F
  8
0_INFO
  6
CONTINUOUS
 62
    30
 10
3522.0
 20
-2654.679874915184
 30
0.0
 11
3520.0
 21
-2594.679874915184
 31
0.0
 12
3522.0
 22
-2594.679874915184
 32
0.0
 13
3522.0
 23
-2594.679874915184
 33
0.0
210
0.0
220
0.0
230
-1.0
  0
SOLID
  5
860
  8
0_INFO
  6
CONTINUOUS
 62
    30
 10
3490.0
 20
-2654.679874915184
 30
0.0
 11
3488.0
 21
-2594.679874915184
 31
0.0
 12
3490.0
 22
-2596.679874915184
 32
0.0
 13
3490.0
 23
-2596.679874915184
 33
0.0
210
0.0
220
0.0
230
-1.0
  0
SOLID
  5
861
  8
0_INFO
  6
CONTINUOUS
 62
    30
 10
3520.0
 20
-2654.679874915184
 30
0.0
 11
3520.0
 21
-2596.679874915184
 31
0.0
 12
3522.0
 22
-2654.679874915184
 32
0.0
 13
3522.0
 23
-2654.679874915184
 33
0.0
210
0.0
220
0.0
230
-1.0
  0
ENDBLK
  5
8C9
  8
0
  0
BLOCK
  8
0
  2
*U27
 70
     1
 10
0.0
 20
0.0
 30
0.0
  3
*U27
  1

  0
SOLID
  5
863
  8
0_INFO
  6
CONTINUOUS
 62
    30
 10
-3482.000000000001
 20
-2654.679874915184
 30
0.0
 11
-3482.000000000001
 21
-2594.679874915184
 31
0.0
 12
-3480.000000000001
 22
-2654.679874915184
 32
0.0
 13
-3480.000000000001
 23
-2654.679874915184
 33
0.0
  0
SOLID
  5
864
  8
0_INFO
  6
CONTINUOUS
 62
    30
 10
-3480.000000000001
 20
-2596.679874915184
 30
0.0
 11
-3482.000000000001
 21
-2594.679874915184
 31
0.0
 12
-3480.000000000001
 22
-2594.679874915184
 32
0.0
 13
-3480.000000000001
 23
-2594.679874915184
 33
0.0
  0
SOLID
  5
865
  8
0_INFO
  6
CONTINUOUS
 62
    30
 10
-3480.000000000001
 20
-2596.679874915184
 30
0.0
 11
-3480.000000000001
 21
-2594.679874915184
 31
0.0
 12
-3450.000000000001
 22
-2596.679874915184
 32
0.0
 13
-3450.000000000001
 23
-2596.679874915184
 33
0.0
  0
SOLID
  5
866
  8
0_INFO
  6
CONTINUOUS
 62
    30
 10
-3450.000000000001
 20
-2596.679874915184
 30
0.0
 11
-3480.000000000001
 21
-2594.679874915184
 31
0.0
 12
-3450.000000000001
 22
-2594.679874915184
 32
0.0
 13
-3450.000000000001
 23
-2594.679874915184
 33
0.0
  0
SOLID
  5
867
  8
0_INFO
  6
CONTINUOUS
 62
    30
 10
-3450.000000000001
 20
-2596.679874915184
 30
0.0
 11
-3450.000000000001
 21
-2594.679874915184
 31
0.0
 12
-3448.0
 22
-2654.679874915184
 32
0.0
 13
-3448.0
 23
-2654.679874915184
 33
0.0
  0
SOLID
  5
868
  8
0_INFO
  6
CONTINUOUS
 62
    30
 10
-3448.0
 20
-2654.679874915184
 30
0.0
 11
-3450.000000000001
 21
-2594.679874915184
 31
0.0
 12
-3448.0
 22
-2594.679874915184
 32
0.0
 13
-3448.0
 23
-2594.679874915184
 33
0.0
  0
SOLID
  5
869
  8
0_INFO
  6
CONTINUOUS
 62
    30
 10
-3480.000000000001
 20
-2654.679874915184
 30
0.0
 11
-3482.000000000001
 21
-2594.679874915184
 31
0.0
 12
-3480.000000000001
 22
-2596.679874915184
 32
0.0
 13
-3480.000000000001
 23
-2596.679874915184
 33
0.0
  0
SOLID
  5
86A
  8
0_INFO
  6
CONTINUOUS
 62
    30
 10
-3450.000000000001
 20
-2654.679874915185
 30
0.0
 11
-3450.000000000001
 21
-2596.679874915184
 31
0.0
 12
-3448.0
 22
-2654.679874915184
 32
0.0
 13
-3448.0
 23
-2654.679874915184
 33
0.0
  0
ENDBLK
  5
8CB
  8
0
  0
BLOCK
  8
0
  2
*U28
 70
     1
 10
0.0
 20
0.0
 30
0.0
  3
*U28
  1

  0
SOLID
  5
86C
  8
0_INFO
  6
CONTINUOUS
 62
    30
 10
3408.0
 20
-2654.679874915184
 30
0.0
 11
3408.0
 21
-2594.679874915184
 31
0.0
 12
3410.0
 22
-2654.679874915184
 32
0.0
 13
3410.0
 23
-2654.679874915184
 33
0.0
210
0.0
220
0.0
230
-1.0
  0
SOLID
  5
86D
  8
0_INFO
  6
CONTINUOUS
 62
    30
 10
3410.0
 20
-2596.679874915184
 30
0.0
 11
3408.0
 21
-2594.679874915184
 31
0.0
 12
3410.0
 22
-2594.679874915184
 32
0.0
 13
3410.0
 23
-2594.679874915184
 33
0.0
210
0.0
220
0.0
230
-1.0
  0
SOLID
  5
86E
  8
0_INFO
  6
CONTINUOUS
 62
    30
 10
3410.0
 20
-2596.679874915184
 30
0.0
 11
3410.0
 21
-2594.679874915184
 31
0.0
 12
3440.0
 22
-2596.679874915184
 32
0.0
 13
3440.0
 23
-2596.679874915184
 33
0.0
210
0.0
220
0.0
230
-1.0
  0
SOLID
  5
86F
  8
0_INFO
  6
CONTINUOUS
 62
    30
 10
3440.0
 20
-2596.679874915184
 30
0.0
 11
3410.0
 21
-2594.679874915184
 31
0.0
 12
3440.0
 22
-2594.679874915184
 32
0.0
 13
3440.0
 23
-2594.679874915184
 33
0.0
210
0.0
220
0.0
230
-1.0
  0
SOLID
  5
870
  8
0_INFO
  6
CONTINUOUS
 62
    30
 10
3440.0
 20
-2596.679874915184
 30
0.0
 11
3440.0
 21
-2594.679874915184
 31
0.0
 12
3442.0
 22
-2654.679874915184
 32
0.0
 13
3442.0
 23
-2654.679874915184
 33
0.0
210
0.0
220
0.0
230
-1.0
  0
SOLID
  5
871
  8
0_INFO
  6
CONTINUOUS
 62
    30
 10
3442.0
 20
-2654.679874915184
 30
0.0
 11
3440.0
 21
-2594.679874915184
 31
0.0
 12
3442.0
 22
-2594.679874915184
 32
0.0
 13
3442.0
 23
-2594.679874915184
 33
0.0
210
0.0
220
0.0
230
-1.0
  0
SOLID
  5
872
  8
0_INFO
  6
CONTINUOUS
 62
    30
 10
3410.0
 20
-2654.679874915184
 30
0.0
 11
3408.0
 21
-2594.679874915184
 31
0.0
 12
3410.0
 22
-2596.679874915184
 32
0.0
 13
3410.0
 23
-2596.679874915184
 33
0.0
210
0.0
220
0.0
230
-1.0
  0
SOLID
  5
873
  8
0_INFO
  6
CONTINUOUS
 62
    30
 10
3440.0
 20
-2654.679874915184
 30
0.0
 11
3440.0
 21
-2596.679874915184
 31
0.0
 12
3442.0
 22
-2654.679874915184
 32
0.0
 13
3442.0
 23
-2654.679874915184
 33
0.0
210
0.0
220
0.0
230
-1.0
  0
ENDBLK
  5
8CD
  8
0
  0
BLOCK
  8
0
  2
*U29
 70
     1
 10
0.0
 20
0.0
 30
0.0
  3
*U29
  1

  0
SOLID
  5
875
  8
0_INFO
  6
CONTINUOUS
 62
    30
 10
-3382.000000000001
 20
-2654.679874915184
 30
0.0
 11
-3382.000000000001
 21
-2594.679874915184
 31
0.0
 12
-3380.000000000001
 22
-2654.679874915184
 32
0.0
 13
-3380.000000000001
 23
-2654.679874915184
 33
0.0
  0
SOLID
  5
876
  8
0_INFO
  6
CONTINUOUS
 62
    30
 10
-3380.000000000001
 20
-2596.679874915184
 30
0.0
 11
-3382.000000000001
 21
-2594.679874915184
 31
0.0
 12
-3380.000000000001
 22
-2594.679874915184
 32
0.0
 13
-3380.000000000001
 23
-2594.679874915184
 33
0.0
  0
SOLID
  5
877
  8
0_INFO
  6
CONTINUOUS
 62
    30
 10
-3380.000000000001
 20
-2596.679874915184
 30
0.0
 11
-3380.000000000001
 21
-2594.679874915184
 31
0.0
 12
-3350.000000000001
 22
-2596.679874915184
 32
0.0
 13
-3350.000000000001
 23
-2596.679874915184
 33
0.0
  0
SOLID
  5
878
  8
0_INFO
  6
CONTINUOUS
 62
    30
 10
-3350.000000000001
 20
-2596.679874915184
 30
0.0
 11
-3380.000000000001
 21
-2594.679874915184
 31
0.0
 12
-3350.000000000001
 22
-2594.679874915184
 32
0.0
 13
-3350.000000000001
 23
-2594.679874915184
 33
0.0
  0
SOLID
  5
879
  8
0_INFO
  6
CONTINUOUS
 62
    30
 10
-3350.000000000001
 20
-2596.679874915184
 30
0.0
 11
-3350.000000000001
 21
-2594.679874915184
 31
0.0
 12
-3348.0
 22
-2654.679874915184
 32
0.0
 13
-3348.0
 23
-2654.679874915184
 33
0.0
  0
SOLID
  5
87A
  8
0_INFO
  6
CONTINUOUS
 62
    30
 10
-3348.0
 20
-2654.679874915184
 30
0.0
 11
-3350.000000000001
 21
-2594.679874915184
 31
0.0
 12
-3348.0
 22
-2594.679874915184
 32
0.0
 13
-3348.0
 23
-2594.679874915184
 33
0.0
  0
SOLID
  5
87B
  8
0_INFO
  6
CONTINUOUS
 62
    30
 10
-3380.000000000001
 20
-2654.679874915184
 30
0.0
 11
-3382.000000000001
 21
-2594.679874915184
 31
0.0
 12
-3380.000000000001
 22
-2596.679874915184
 32
0.0
 13
-3380.000000000001
 23
-2596.679874915184
 33
0.0
  0
SOLID
  5
87C
  8
0_INFO
  6
CONTINUOUS
 62
    30
 10
-3350.000000000001
 20
-2654.679874915184
 30
0.0
 11
-3350.000000000001
 21
-2596.679874915184
 31
0.0
 12
-3348.0
 22
-2654.679874915184
 32
0.0
 13
-3348.0
 23
-2654.679874915184
 33
0.0
  0
ENDBLK
  5
8CF
  8
0
  0
BLOCK
  8
0
  2
*U30
 70
     1
 10
0.0
 20
0.0
 30
0.0
  3
*U30
  1

  0
SOLID
  5
87E
  8
0_INFO
  6
CONTINUOUS
 62
    30
 10
3308.0
 20
-2654.679874915184
 30
0.0
 11
3308.0
 21
-2594.679874915184
 31
0.0
 12
3310.0
 22
-2654.679874915184
 32
0.0
 13
3310.0
 23
-2654.679874915184
 33
0.0
210
0.0
220
0.0
230
-1.0
  0
SOLID
  5
87F
  8
0_INFO
  6
CONTINUOUS
 62
    30
 10
3310.0
 20
-2596.679874915184
 30
0.0
 11
3308.0
 21
-2594.679874915184
 31
0.0
 12
3310.0
 22
-2594.679874915184
 32
0.0
 13
3310.0
 23
-2594.679874915184
 33
0.0
210
0.0
220
0.0
230
-1.0
  0
SOLID
  5
880
  8
0_INFO
  6
CONTINUOUS
 62
    30
 10
3310.0
 20
-2596.679874915184
 30
0.0
 11
3310.0
 21
-2594.679874915184
 31
0.0
 12
3340.0
 22
-2596.679874915184
 32
0.0
 13
3340.0
 23
-2596.679874915184
 33
0.0
210
0.0
220
0.0
230
-1.0
  0
SOLID
  5
881
  8
0_INFO
  6
CONTINUOUS
 62
    30
 10
3340.0
 20
-2596.679874915184
 30
0.0
 11
3310.0
 21
-2594.679874915184
 31
0.0
 12
3340.0
 22
-2594.679874915184
 32
0.0
 13
3340.0
 23
-2594.679874915184
 33
0.0
210
0.0
220
0.0
230
-1.0
  0
SOLID
  5
882
  8
0_INFO
  6
CONTINUOUS
 62
    30
 10
3340.0
 20
-2596.679874915184
 30
0.0
 11
3340.0
 21
-2594.679874915184
 31
0.0
 12
3342.0
 22
-2654.679874915184
 32
0.0
 13
3342.0
 23
-2654.679874915184
 33
0.0
210
0.0
220
0.0
230
-1.0
  0
SOLID
  5
883
  8
0_INFO
  6
CONTINUOUS
 62
    30
 10
3342.0
 20
-2654.679874915184
 30
0.0
 11
3340.0
 21
-2594.679874915184
 31
0.0
 12
3342.0
 22
-2594.679874915184
 32
0.0
 13
3342.0
 23
-2594.679874915184
 33
0.0
210
0.0
220
0.0
230
-1.0
  0
SOLID
  5
884
  8
0_INFO
  6
CONTINUOUS
 62
    30
 10
3310.0
 20
-2654.679874915184
 30
0.0
 11
3308.0
 21
-2594.679874915184
 31
0.0
 12
3310.0
 22
-2596.679874915184
 32
0.0
 13
3310.0
 23
-2596.679874915184
 33
0.0
210
0.0
220
0.0
230
-1.0
  0
SOLID
  5
885
  8
0_INFO
  6
CONTINUOUS
 62
    30
 10
3340.0
 20
-2654.679874915184
 30
0.0
 11
3340.0
 21
-2596.679874915184
 31
0.0
 12
3342.0
 22
-2654.679874915184
 32
0.0
 13
3342.0
 23
-2654.679874915184
 33
0.0
210
0.0
220
0.0
230
-1.0
  0
ENDBLK
  5
8D1
  8
0
  0
BLOCK
  8
0
  2
*U31
 70
     1
 10
0.0
 20
0.0
 30
0.0
  3
*U31
  1

  0
SOLID
  5
887
  8
0_INFO
  6
CONTINUOUS
 62
    30
 10
-3282.000000000001
 20
-2654.679874915184
 30
0.0
 11
-3282.000000000001
 21
-2594.679874915184
 31
0.0
 12
-3280.000000000001
 22
-2654.679874915184
 32
0.0
 13
-3280.000000000001
 23
-2654.679874915184
 33
0.0
  0
SOLID
  5
888
  8
0_INFO
  6
CONTINUOUS
 62
    30
 10
-3280.000000000001
 20
-2596.679874915184
 30
0.0
 11
-3282.000000000001
 21
-2594.679874915184
 31
0.0
 12
-3280.000000000001
 22
-2594.679874915184
 32
0.0
 13
-3280.000000000001
 23
-2594.679874915184
 33
0.0
  0
SOLID
  5
889
  8
0_INFO
  6
CONTINUOUS
 62
    30
 10
-3280.000000000001
 20
-2596.679874915184
 30
0.0
 11
-3280.000000000001
 21
-2594.679874915184
 31
0.0
 12
-3250.000000000001
 22
-2596.679874915184
 32
0.0
 13
-3250.000000000001
 23
-2596.679874915184
 33
0.0
  0
SOLID
  5
88A
  8
0_INFO
  6
CONTINUOUS
 62
    30
 10
-3250.000000000001
 20
-2596.679874915184
 30
0.0
 11
-3280.000000000001
 21
-2594.679874915184
 31
0.0
 12
-3250.000000000001
 22
-2594.679874915184
 32
0.0
 13
-3250.000000000001
 23
-2594.679874915184
 33
0.0
  0
SOLID
  5
88B
  8
0_INFO
  6
CONTINUOUS
 62
    30
 10
-3250.000000000001
 20
-2596.679874915184
 30
0.0
 11
-3250.000000000001
 21
-2594.679874915184
 31
0.0
 12
-3248.0
 22
-2654.679874915184
 32
0.0
 13
-3248.0
 23
-2654.679874915184
 33
0.0
  0
SOLID
  5
88C
  8
0_INFO
  6
CONTINUOUS
 62
    30
 10
-3248.0
 20
-2654.679874915184
 30
0.0
 11
-3250.000000000001
 21
-2594.679874915184
 31
0.0
 12
-3248.0
 22
-2594.679874915184
 32
0.0
 13
-3248.0
 23
-2594.679874915184
 33
0.0
  0
SOLID
  5
88D
  8
0_INFO
  6
CONTINUOUS
 62
    30
 10
-3280.000000000001
 20
-2654.679874915184
 30
0.0
 11
-3282.000000000001
 21
-2594.679874915184
 31
0.0
 12
-3280.000000000001
 22
-2596.679874915184
 32
0.0
 13
-3280.000000000001
 23
-2596.679874915184
 33
0.0
  0
SOLID
  5
88E
  8
0_INFO
  6
CONTINUOUS
 62
    30
 10
-3250.000000000001
 20
-2654.679874915184
 30
0.0
 11
-3250.000000000001
 21
-2596.679874915184
 31
0.0
 12
-3248.0
 22
-2654.679874915184
 32
0.0
 13
-3248.0
 23
-2654.679874915184
 33
0.0
  0
ENDBLK
  5
8D3
  8
0
  0
BLOCK
  8
0
  2
*U32
 70
     1
 10
0.0
 20
0.0
 30
0.0
  3
*U32
  1

  0
SOLID
  5
890
  8
0_INFO
  6
CONTINUOUS
 62
    30
 10
3208.0
 20
-2654.679874915184
 30
0.0
 11
3208.0
 21
-2594.679874915184
 31
0.0
 12
3210.0
 22
-2654.679874915184
 32
0.0
 13
3210.0
 23
-2654.679874915184
 33
0.0
210
0.0
220
0.0
230
-1.0
  0
SOLID
  5
891
  8
0_INFO
  6
CONTINUOUS
 62
    30
 10
3210.0
 20
-2596.679874915183
 30
0.0
 11
3208.0
 21
-2594.679874915184
 31
0.0
 12
3210.0
 22
-2594.679874915184
 32
0.0
 13
3210.0
 23
-2594.679874915184
 33
0.0
210
0.0
220
0.0
230
-1.0
  0
SOLID
  5
892
  8
0_INFO
  6
CONTINUOUS
 62
    30
 10
3210.0
 20
-2596.679874915183
 30
0.0
 11
3210.0
 21
-2594.679874915184
 31
0.0
 12
3240.0
 22
-2596.679874915184
 32
0.0
 13
3240.0
 23
-2596.679874915184
 33
0.0
210
0.0
220
0.0
230
-1.0
  0
SOLID
  5
893
  8
0_INFO
  6
CONTINUOUS
 62
    30
 10
3240.0
 20
-2596.679874915184
 30
0.0
 11
3210.0
 21
-2594.679874915184
 31
0.0
 12
3240.0
 22
-2594.679874915184
 32
0.0
 13
3240.0
 23
-2594.679874915184
 33
0.0
210
0.0
220
0.0
230
-1.0
  0
SOLID
  5
894
  8
0_INFO
  6
CONTINUOUS
 62
    30
 10
3240.0
 20
-2596.679874915184
 30
0.0
 11
3240.0
 21
-2594.679874915184
 31
0.0
 12
3242.0
 22
-2654.679874915184
 32
0.0
 13
3242.0
 23
-2654.679874915184
 33
0.0
210
0.0
220
0.0
230
-1.0
  0
SOLID
  5
895
  8
0_INFO
  6
CONTINUOUS
 62
    30
 10
3242.0
 20
-2654.679874915184
 30
0.0
 11
3240.0
 21
-2594.679874915184
 31
0.0
 12
3242.0
 22
-2594.679874915184
 32
0.0
 13
3242.0
 23
-2594.679874915184
 33
0.0
210
0.0
220
0.0
230
-1.0
  0
SOLID
  5
896
  8
0_INFO
  6
CONTINUOUS
 62
    30
 10
3210.0
 20
-2654.679874915184
 30
0.0
 11
3208.0
 21
-2594.679874915184
 31
0.0
 12
3210.0
 22
-2596.679874915183
 32
0.0
 13
3210.0
 23
-2596.679874915183
 33
0.0
210
0.0
220
0.0
230
-1.0
  0
SOLID
  5
897
  8
0_INFO
  6
CONTINUOUS
 62
    30
 10
3240.0
 20
-2654.679874915184
 30
0.0
 11
3240.0
 21
-2596.679874915184
 31
0.0
 12
3242.0
 22
-2654.679874915184
 32
0.0
 13
3242.0
 23
-2654.679874915184
 33
0.0
210
0.0
220
0.0
230
-1.0
  0
ENDBLK
  5
8D5
  8
0
  0
ENDSEC
  0
SECTION
  2
ENTITIES
  0
LINE
  5
60
  8
1_PAPPENGR__SHEET_SIZE
 10
-1000.0
 20
700.0
 30
0.0
 11
-1000.0
 21
0.0
 31
0.0
  0
LINE
  5
61
  8
1_PAPPENGR__SHEET_SIZE
 10
-1000.0
 20
0.0
 30
0.0
 11
0.0
 21
0.0
 31
0.0
  0
LINE
  5
62
  8
1_PAPPENGR__SHEET_SIZE
 10
0.0
 20
0.0
 30
0.0
 11
0.0
 21
700.0
 31
0.0
  0
LINE
  5
63
  8
1_PAPPENGR__SHEET_SIZE
 10
0.0
 20
700.0
 30
0.0
 11
-1000.0
 21
700.0
 31
0.0
  0
INSERT
  5
66
  8
0_INFO
 62
     1
  2
*X2
 10
0.0
 20
0.0
 30
0.0
  0
LINE
  5
67
  8
0_INFO
 10
0.0
 20
0.0
 30
0.0
 11
-1200.0
 21
0.0
 31
0.0
  0
LINE
  5
68
  8
0_INFO
 10
-1200.0
 20
0.0
 30
0.0
 11
-1200.0
 21
1600.0
 31
0.0
  0
LINE
  5
69
  8
0_INFO
 10
-1200.0
 20
1600.0
 30
0.0
 11
0.0
 21
1600.0
 31
0.0
  0
LINE
  5
6A
  8
0_INFO
 10
0.0
 20
1600.0
 30
0.0
 11
0.0
 21
0.0
 31
0.0
  0
LINE
  5
6C
  8
3_GRAVUR_LEICHT_SLIGHT_ENG
 62
     3
 10
-4313.866651379283
 20
-1176.216666666667
 30
0.0
 11
-4067.19766253255
 21
-1176.216666666667
 31
0.0
  0
TEXT
  5
6D
  8
0_INFO
 62
     3
 10
-4050.596028571429
 20
-1168.948711838624
 30
0.0
 40
25.1722
  1
3 Gravur leicht_slight engraving
  7
ARIAL
1001
ACADANNOTATIVE
1000
AnnotativeData
1002
{
1070
     1
1070
     0
1002
}
  0
LINE
  5
6F
  8
7_SCHNITT_INNENLIEGEND_CUT
 62
     2
 10
-4313.866651379283
 20
-1776.216666666667
 30
0.0
 11
-4067.19766253255
 21
-1776.216666666667
 31
0.0
  0
TEXT
  5
70
  8
0_INFO
 62
     2
 10
-4050.596028571429
 20
-1768.948711838624
 30
0.0
 40
25.1722
  1
7 Schnitt für innenliegende Objekte_cut inlying objects
  7
ARIAL
1001
ACADANNOTATIVE
1000
AnnotativeData
1002
{
1070
     1
1070
     0
1002
}
  0
LINE
  5
72
  8
6_RASTER_TIEF_DEEP_RASTER
 62
    30
 10
-4313.866651379283
 20
-1626.216666666667
 30
0.0
 11
-4067.19766253255
 21
-1626.216666666667
 31
0.0
  0
TEXT
  5
73
  8
0_INFO
 62
    30
 10
-4051.794704761905
 20
-1618.948711838624
 30
0.0
 40
25.1722
  1
6 Raster tief_deep raster
  7
ARIAL
1001
ACADANNOTATIVE
1000
AnnotativeData
1002
{
1070
     1
1070
     0
1002
}
  0
LINE
  5
75
  8
5_RASTER_LEICHT_SLIGHT_RAS
 62
     4
 10
-4313.866651379283
 20
-1476.216666666667
 30
0.0
 11
-4067.19766253255
 21
-1476.216666666667
 31
0.0
  0
TEXT
  5
76
  8
0_INFO
 62
     4
 10
-4050.596028571429
 20
-1468.948711838624
 30
0.0
 40
25.1722
  1
5 Raster leicht_slight raster
  7
ARIAL
1001
ACADANNOTATIVE
1000
AnnotativeData
1002
{
1070
     1
1070
     0
1002
}
  0
LINE
  5
78
  8
4_GRAVUR_TIEF_DEEP_ENGRAVI
 62
     1
 10
-4313.866651379283
 20
-1326.216666666667
 30
0.0
 11
-4067.19766253255
 21
-1326.216666666667
 31
0.0
  0
TEXT
  5
79
  8
0_INFO
 62
     1
 10
-4050.596028571429
 20
-1318.948711838624
 30
0.0
 40
25.1722
  1
4 Gravur tief_deep engraving
  7
ARIAL
1001
ACADANNOTATIVE
1000
AnnotativeData
1002
{
1070
     1
1070
     0
1002
}
  0
TEXT
  5
7A
  8
0_INFO
 62
   128
 10
-4050.596028571429
 20
-1018.948711838624
 30
0.0
 40
25.1722
  1
2 Zeichnen_pen
  7
ARIAL
1001
ACADANNOTATIVE
1000
AnnotativeData
1002
{
1070
     1
1070
     0
1002
}
  0
LINE
  5
7C
  8
2_ZEICHNEN_PEN
 62
    98
 10
-4313.866651379283
 20
-1026.216666666667
 30
0.0
 11
-4067.19766253255
 21
-1026.216666666667
 31
0.0
  0
LINE
  5
7E
  8
8_SCHNITT_CUT
 62
     5
 10
-4313.866651379283
 20
-1926.216666666667
 30
0.0
 11
-4067.19766253255
 21
-1926.216666666667
 31
0.0
  0
TEXT
  5
7F
  8
0_INFO
 62
     5
 10
-4050.596028571429
 20
-1918.948711838624
 30
0.0
 40
25.1722
  1
8 Schnitt_cut
  7
ARIAL
1001
ACADANNOTATIVE
1000
AnnotativeData
1002
{
1070
     1
1070
     0
1002
}
  0
LINE
  5
80
  8
0_INFO
 62
     2
 10
-3838.000000000001
 20
-2652.679874915184
 30
0.0
 11
-3825.500000000001
 21
-2652.679874915184
 31
0.0
  0
LINE
  5
81
  8
0_INFO
 62
     2
 10
-3825.500000000001
 20
-2652.679874915184
 30
0.0
 11
-3825.500000000001
 21
-2639.734979816648
 31
0.0
  0
LINE
  5
82
  8
0_INFO
 62
     2
 10
-3825.500000000001
 20
-2639.734979816648
 30
0.0
 11
-3838.000000000001
 21
-2639.734979816648
 31
0.0
  0
LINE
  5
83
  8
0_INFO
 62
     2
 10
-3838.000000000001
 20
-2639.734979816648
 30
0.0
 11
-3838.000000000001
 21
-2652.679874915184
 31
0.0
  0
LINE
  5
84
  8
0_INFO
 62
     2
 10
-3812.000000000001
 20
-2639.734979816648
 30
0.0
 11
-3824.500000000001
 21
-2639.734979816648
 31
0.0
  0
LINE
  5
85
  8
0_INFO
 62
     2
 10
-3824.500000000001
 20
-2639.734979816648
 30
0.0
 11
-3824.500000000001
 21
-2652.679874915184
 31
0.0
  0
LINE
  5
86
  8
0_INFO
 62
     2
 10
-3824.500000000001
 20
-2652.679874915184
 30
0.0
 11
-3812.000000000001
 21
-2652.679874915184
 31
0.0
  0
LINE
  5
87
  8
0_INFO
 62
     2
 10
-3812.000000000001
 20
-2652.679874915184
 30
0.0
 11
-3812.000000000001
 21
-2639.734979816648
 31
0.0
  0
LINE
  5
88
  8
0_INFO
 62
     2
 10
-3838.000000000001
 20
-2626.212214546702
 30
0.0
 11
-3825.500000000001
 21
-2626.212214546702
 31
0.0
  0
LINE
  5
89
  8
0_INFO
 62
     2
 10
-3825.500000000001
 20
-2626.212214546702
 30
0.0
 11
-3825.500000000001
 21
-2638.62477001372
 31
0.0
  0
LINE
  5
8A
  8
0_INFO
 62
     2
 10
-3825.500000000001
 20
-2638.62477001372
 30
0.0
 11
-3838.000000000001
 21
-2638.62477001372
 31
0.0
  0
LINE
  5
8B
  8
0_INFO
 62
     2
 10
-3838.000000000001
 20
-2638.62477001372
 30
0.0
 11
-3838.000000000001
 21
-2626.212214546702
 31
0.0
  0
LINE
  5
8C
  8
0_INFO
 62
     2
 10
-3812.000000000001
 20
-2638.62477001372
 30
0.0
 11
-3824.500000000001
 21
-2638.62477001372
 31
0.0
  0
LINE
  5
8D
  8
0_INFO
 62
     2
 10
-3824.500000000001
 20
-2638.62477001372
 30
0.0
 11
-3824.500000000001
 21
-2626.212214546702
 31
0.0
  0
LINE
  5
8E
  8
0_INFO
 62
     2
 10
-3824.500000000001
 20
-2626.212214546702
 30
0.0
 11
-3812.000000000001
 21
-2626.212214546702
 31
0.0
  0
LINE
  5
8F
  8
0_INFO
 62
     2
 10
-3812.000000000001
 20
-2626.212214546702
 30
0.0
 11
-3812.000000000001
 21
-2638.62477001372
 31
0.0
  0
LINE
  5
90
  8
0_INFO
 62
     2
 10
-3838.000000000001
 20
-2625.147535283666
 30
0.0
 11
-3825.500000000001
 21
-2625.147535283666
 31
0.0
  0
LINE
  5
91
  8
0_INFO
 62
     2
 10
-3825.500000000001
 20
-2625.147535283666
 30
0.0
 11
-3825.500000000001
 21
-2612.734979816648
 31
0.0
  0
LINE
  5
92
  8
0_INFO
 62
     2
 10
-3825.500000000001
 20
-2612.734979816648
 30
0.0
 11
-3838.000000000001
 21
-2612.734979816648
 31
0.0
  0
LINE
  5
93
  8
0_INFO
 62
     2
 10
-3838.000000000001
 20
-2612.734979816648
 30
0.0
 11
-3838.000000000001
 21
-2625.147535283666
 31
0.0
  0
LINE
  5
94
  8
0_INFO
 62
     2
 10
-3812.000000000001
 20
-2612.734979816648
 30
0.0
 11
-3824.500000000001
 21
-2612.734979816648
 31
0.0
  0
LINE
  5
95
  8
0_INFO
 62
     2
 10
-3824.500000000001
 20
-2612.734979816648
 30
0.0
 11
-3824.500000000001
 21
-2625.147535283666
 31
0.0
  0
LINE
  5
96
  8
0_INFO
 62
     2
 10
-3824.500000000001
 20
-2625.147535283666
 30
0.0
 11
-3812.000000000001
 21
-2625.147535283666
 31
0.0
  0
LINE
  5
97
  8
0_INFO
 62
     2
 10
-3812.000000000001
 20
-2625.147535283666
 30
0.0
 11
-3812.000000000001
 21
-2612.734979816648
 31
0.0
  0
LINE
  5
98
  8
0_INFO
 62
     2
 10
-3838.000000000001
 20
-2598.679874915184
 30
0.0
 11
-3825.500000000001
 21
-2598.679874915184
 31
0.0
  0
LINE
  5
99
  8
0_INFO
 62
     2
 10
-3825.500000000001
 20
-2598.679874915184
 30
0.0
 11
-3825.500000000001
 21
-2611.62477001372
 31
0.0
  0
LINE
  5
9A
  8
0_INFO
 62
     2
 10
-3825.500000000001
 20
-2611.62477001372
 30
0.0
 11
-3838.000000000001
 21
-2611.62477001372
 31
0.0
  0
LINE
  5
9B
  8
0_INFO
 62
     2
 10
-3838.000000000001
 20
-2611.62477001372
 30
0.0
 11
-3838.000000000001
 21
-2598.679874915184
 31
0.0
  0
LINE
  5
9C
  8
0_INFO
 62
     2
 10
-3812.000000000001
 20
-2611.62477001372
 30
0.0
 11
-3824.500000000001
 21
-2611.62477001372
 31
0.0
  0
LINE
  5
9D
  8
0_INFO
 62
     2
 10
-3824.500000000001
 20
-2611.62477001372
 30
0.0
 11
-3824.500000000001
 21
-2598.679874915184
 31
0.0
  0
LINE
  5
9E
  8
0_INFO
 62
     2
 10
-3824.500000000001
 20
-2598.679874915184
 30
0.0
 11
-3812.000000000001
 21
-2598.679874915184
 31
0.0
  0
LINE
  5
9F
  8
0_INFO
 62
     2
 10
-3812.000000000001
 20
-2598.679874915184
 30
0.0
 11
-3812.000000000001
 21
-2611.62477001372
 31
0.0
  0
LINE
  5
A0
  8
0_INFO
 62
     2
 10
-3772.0
 20
-2652.679874915184
 30
0.0
 11
-3784.5
 21
-2652.679874915184
 31
0.0
  0
LINE
  5
A1
  8
0_INFO
 62
     2
 10
-3784.5
 20
-2652.679874915184
 30
0.0
 11
-3784.5
 21
-2639.734979816648
 31
0.0
  0
LINE
  5
A2
  8
0_INFO
 62
     2
 10
-3784.5
 20
-2639.734979816648
 30
0.0
 11
-3772.0
 21
-2639.734979816648
 31
0.0
  0
LINE
  5
A3
  8
0_INFO
 62
     2
 10
-3772.0
 20
-2639.734979816648
 30
0.0
 11
-3772.0
 21
-2652.679874915184
 31
0.0
  0
LINE
  5
A4
  8
0_INFO
 62
     2
 10
-3798.0
 20
-2639.734979816648
 30
0.0
 11
-3785.5
 21
-2639.734979816648
 31
0.0
  0
LINE
  5
A5
  8
0_INFO
 62
     2
 10
-3785.5
 20
-2639.734979816648
 30
0.0
 11
-3785.5
 21
-2652.679874915184
 31
0.0
  0
LINE
  5
A6
  8
0_INFO
 62
     2
 10
-3785.5
 20
-2652.679874915184
 30
0.0
 11
-3798.0
 21
-2652.679874915184
 31
0.0
  0
LINE
  5
A7
  8
0_INFO
 62
     2
 10
-3798.0
 20
-2652.679874915184
 30
0.0
 11
-3798.0
 21
-2639.734979816648
 31
0.0
  0
LINE
  5
A8
  8
0_INFO
 62
     2
 10
-3772.0
 20
-2626.212214546702
 30
0.0
 11
-3784.5
 21
-2626.212214546702
 31
0.0
  0
LINE
  5
A9
  8
0_INFO
 62
     2
 10
-3784.5
 20
-2626.212214546702
 30
0.0
 11
-3784.5
 21
-2638.62477001372
 31
0.0
  0
LINE
  5
AA
  8
0_INFO
 62
     2
 10
-3784.5
 20
-2638.62477001372
 30
0.0
 11
-3772.0
 21
-2638.62477001372
 31
0.0
  0
LINE
  5
AB
  8
0_INFO
 62
     2
 10
-3772.0
 20
-2638.62477001372
 30
0.0
 11
-3772.0
 21
-2626.212214546702
 31
0.0
  0
LINE
  5
AC
  8
0_INFO
 62
     2
 10
-3798.0
 20
-2638.62477001372
 30
0.0
 11
-3785.5
 21
-2638.62477001372
 31
0.0
  0
LINE
  5
AD
  8
0_INFO
 62
     2
 10
-3785.5
 20
-2638.62477001372
 30
0.0
 11
-3785.5
 21
-2626.212214546702
 31
0.0
  0
LINE
  5
AE
  8
0_INFO
 62
     2
 10
-3785.5
 20
-2626.212214546702
 30
0.0
 11
-3798.0
 21
-2626.212214546702
 31
0.0
  0
LINE
  5
AF
  8
0_INFO
 62
     2
 10
-3798.0
 20
-2626.212214546702
 30
0.0
 11
-3798.0
 21
-2638.62477001372
 31
0.0
  0
LINE
  5
B0
  8
0_INFO
 62
     2
 10
-3772.0
 20
-2625.147535283666
 30
0.0
 11
-3784.5
 21
-2625.147535283666
 31
0.0
  0
LINE
  5
B1
  8
0_INFO
 62
     2
 10
-3784.5
 20
-2625.147535283666
 30
0.0
 11
-3784.5
 21
-2612.734979816648
 31
0.0
  0
LINE
  5
B2
  8
0_INFO
 62
     2
 10
-3784.5
 20
-2612.734979816648
 30
0.0
 11
-3772.0
 21
-2612.734979816648
 31
0.0
  0
LINE
  5
B3
  8
0_INFO
 62
     2
 10
-3772.0
 20
-2612.734979816648
 30
0.0
 11
-3772.0
 21
-2625.147535283666
 31
0.0
  0
LINE
  5
B4
  8
0_INFO
 62
     2
 10
-3798.0
 20
-2612.734979816648
 30
0.0
 11
-3785.5
 21
-2612.734979816648
 31
0.0
  0
LINE
  5
B5
  8
0_INFO
 62
     2
 10
-3785.5
 20
-2612.734979816648
 30
0.0
 11
-3785.5
 21
-2625.147535283666
 31
0.0
  0
LINE
  5
B6
  8
0_INFO
 62
     2
 10
-3785.5
 20
-2625.147535283666
 30
0.0
 11
-3798.0
 21
-2625.147535283666
 31
0.0
  0
LINE
  5
B7
  8
0_INFO
 62
     2
 10
-3798.0
 20
-2625.147535283666
 30
0.0
 11
-3798.0
 21
-2612.734979816648
 31
0.0
  0
LINE
  5
B8
  8
0_INFO
 62
     2
 10
-3772.0
 20
-2598.679874915184
 30
0.0
 11
-3784.5
 21
-2598.679874915184
 31
0.0
  0
LINE
  5
B9
  8
0_INFO
 62
     2
 10
-3784.5
 20
-2598.679874915184
 30
0.0
 11
-3784.5
 21
-2611.62477001372
 31
0.0
  0
LINE
  5
BA
  8
0_INFO
 62
     2
 10
-3784.5
 20
-2611.62477001372
 30
0.0
 11
-3772.0
 21
-2611.62477001372
 31
0.0
  0
LINE
  5
BB
  8
0_INFO
 62
     2
 10
-3772.0
 20
-2611.62477001372
 30
0.0
 11
-3772.0
 21
-2598.679874915184
 31
0.0
  0
LINE
  5
BC
  8
0_INFO
 62
     2
 10
-3798.0
 20
-2611.62477001372
 30
0.0
 11
-3785.5
 21
-2611.62477001372
 31
0.0
  0
LINE
  5
BD
  8
0_INFO
 62
     2
 10
-3785.5
 20
-2611.62477001372
 30
0.0
 11
-3785.5
 21
-2598.679874915184
 31
0.0
  0
LINE
  5
BE
  8
0_INFO
 62
     2
 10
-3785.5
 20
-2598.679874915184
 30
0.0
 11
-3798.0
 21
-2598.679874915184
 31
0.0
  0
LINE
  5
BF
  8
0_INFO
 62
     2
 10
-3798.0
 20
-2598.679874915184
 30
0.0
 11
-3798.0
 21
-2611.62477001372
 31
0.0
  0
LINE
  5
C0
  8
0_INFO
 62
     2
 10
-3738.000000000001
 20
-2652.679874915184
 30
0.0
 11
-3725.500000000001
 21
-2652.679874915184
 31
0.0
  0
LINE
  5
C1
  8
0_INFO
 62
     2
 10
-3725.500000000001
 20
-2652.679874915184
 30
0.0
 11
-3725.500000000001
 21
-2639.734979816648
 31
0.0
  0
LINE
  5
C2
  8
0_INFO
 62
     2
 10
-3725.500000000001
 20
-2639.734979816648
 30
0.0
 11
-3738.000000000001
 21
-2639.734979816648
 31
0.0
  0
LINE
  5
C3
  8
0_INFO
 62
     2
 10
-3738.000000000001
 20
-2639.734979816648
 30
0.0
 11
-3738.000000000001
 21
-2652.679874915184
 31
0.0
  0
LINE
  5
C4
  8
0_INFO
 62
     2
 10
-3712.000000000001
 20
-2639.734979816648
 30
0.0
 11
-3724.500000000001
 21
-2639.734979816648
 31
0.0
  0
LINE
  5
C5
  8
0_INFO
 62
     2
 10
-3724.500000000001
 20
-2639.734979816648
 30
0.0
 11
-3724.500000000001
 21
-2652.679874915184
 31
0.0
  0
LINE
  5
C6
  8
0_INFO
 62
     2
 10
-3724.500000000001
 20
-2652.679874915184
 30
0.0
 11
-3712.000000000001
 21
-2652.679874915184
 31
0.0
  0
LINE
  5
C7
  8
0_INFO
 62
     2
 10
-3712.000000000001
 20
-2652.679874915184
 30
0.0
 11
-3712.000000000001
 21
-2639.734979816648
 31
0.0
  0
LINE
  5
C8
  8
0_INFO
 62
     2
 10
-3738.000000000001
 20
-2626.212214546702
 30
0.0
 11
-3725.500000000001
 21
-2626.212214546702
 31
0.0
  0
LINE
  5
C9
  8
0_INFO
 62
     2
 10
-3725.500000000001
 20
-2626.212214546702
 30
0.0
 11
-3725.500000000001
 21
-2638.62477001372
 31
0.0
  0
LINE
  5
CA
  8
0_INFO
 62
     2
 10
-3725.500000000001
 20
-2638.62477001372
 30
0.0
 11
-3738.000000000001
 21
-2638.62477001372
 31
0.0
  0
LINE
  5
CB
  8
0_INFO
 62
     2
 10
-3738.000000000001
 20
-2638.62477001372
 30
0.0
 11
-3738.000000000001
 21
-2626.212214546702
 31
0.0
  0
LINE
  5
CC
  8
0_INFO
 62
     2
 10
-3712.000000000001
 20
-2638.62477001372
 30
0.0
 11
-3724.500000000001
 21
-2638.62477001372
 31
0.0
  0
LINE
  5
CD
  8
0_INFO
 62
     2
 10
-3724.500000000001
 20
-2638.62477001372
 30
0.0
 11
-3724.500000000001
 21
-2626.212214546702
 31
0.0
  0
LINE
  5
CE
  8
0_INFO
 62
     2
 10
-3724.500000000001
 20
-2626.212214546702
 30
0.0
 11
-3712.000000000001
 21
-2626.212214546702
 31
0.0
  0
LINE
  5
CF
  8
0_INFO
 62
     2
 10
-3712.000000000001
 20
-2626.212214546702
 30
0.0
 11
-3712.000000000001
 21
-2638.62477001372
 31
0.0
  0
LINE
  5
D0
  8
0_INFO
 62
     2
 10
-3738.000000000001
 20
-2625.147535283666
 30
0.0
 11
-3725.500000000001
 21
-2625.147535283666
 31
0.0
  0
LINE
  5
D1
  8
0_INFO
 62
     2
 10
-3725.500000000001
 20
-2625.147535283666
 30
0.0
 11
-3725.500000000001
 21
-2612.734979816648
 31
0.0
  0
LINE
  5
D2
  8
0_INFO
 62
     2
 10
-3725.500000000001
 20
-2612.734979816648
 30
0.0
 11
-3738.000000000001
 21
-2612.734979816648
 31
0.0
  0
LINE
  5
D3
  8
0_INFO
 62
     2
 10
-3738.000000000001
 20
-2612.734979816648
 30
0.0
 11
-3738.000000000001
 21
-2625.147535283666
 31
0.0
  0
LINE
  5
D4
  8
0_INFO
 62
     2
 10
-3712.000000000001
 20
-2612.734979816648
 30
0.0
 11
-3724.500000000001
 21
-2612.734979816648
 31
0.0
  0
LINE
  5
D5
  8
0_INFO
 62
     2
 10
-3724.500000000001
 20
-2612.734979816648
 30
0.0
 11
-3724.500000000001
 21
-2625.147535283666
 31
0.0
  0
LINE
  5
D6
  8
0_INFO
 62
     2
 10
-3724.500000000001
 20
-2625.147535283666
 30
0.0
 11
-3712.000000000001
 21
-2625.147535283666
 31
0.0
  0
LINE
  5
D7
  8
0_INFO
 62
     2
 10
-3712.000000000001
 20
-2625.147535283666
 30
0.0
 11
-3712.000000000001
 21
-2612.734979816648
 31
0.0
  0
LINE
  5
D8
  8
0_INFO
 62
     2
 10
-3738.000000000001
 20
-2598.679874915184
 30
0.0
 11
-3725.500000000001
 21
-2598.679874915184
 31
0.0
  0
LINE
  5
D9
  8
0_INFO
 62
     2
 10
-3725.500000000001
 20
-2598.679874915184
 30
0.0
 11
-3725.500000000001
 21
-2611.62477001372
 31
0.0
  0
LINE
  5
DA
  8
0_INFO
 62
     2
 10
-3725.500000000001
 20
-2611.62477001372
 30
0.0
 11
-3738.000000000001
 21
-2611.62477001372
 31
0.0
  0
LINE
  5
DB
  8
0_INFO
 62
     2
 10
-3738.000000000001
 20
-2611.62477001372
 30
0.0
 11
-3738.000000000001
 21
-2598.679874915184
 31
0.0
  0
LINE
  5
DC
  8
0_INFO
 62
     2
 10
-3712.000000000001
 20
-2611.62477001372
 30
0.0
 11
-3724.500000000001
 21
-2611.62477001372
 31
0.0
  0
LINE
  5
DD
  8
0_INFO
 62
     2
 10
-3724.500000000001
 20
-2611.62477001372
 30
0.0
 11
-3724.500000000001
 21
-2598.679874915184
 31
0.0
  0
LINE
  5
DE
  8
0_INFO
 62
     2
 10
-3724.500000000001
 20
-2598.679874915184
 30
0.0
 11
-3712.000000000001
 21
-2598.679874915184
 31
0.0
  0
LINE
  5
DF
  8
0_INFO
 62
     2
 10
-3712.000000000001
 20
-2598.679874915184
 30
0.0
 11
-3712.000000000001
 21
-2611.62477001372
 31
0.0
  0
LINE
  5
E0
  8
0_INFO
 62
     2
 10
-3672.0
 20
-2652.679874915184
 30
0.0
 11
-3684.5
 21
-2652.679874915184
 31
0.0
  0
LINE
  5
E1
  8
0_INFO
 62
     2
 10
-3684.5
 20
-2652.679874915184
 30
0.0
 11
-3684.5
 21
-2639.734979816648
 31
0.0
  0
LINE
  5
E2
  8
0_INFO
 62
     2
 10
-3684.5
 20
-2639.734979816648
 30
0.0
 11
-3672.0
 21
-2639.734979816648
 31
0.0
  0
LINE
  5
E3
  8
0_INFO
 62
     2
 10
-3672.0
 20
-2639.734979816648
 30
0.0
 11
-3672.0
 21
-2652.679874915184
 31
0.0
  0
LINE
  5
E4
  8
0_INFO
 62
     2
 10
-3698.0
 20
-2639.734979816648
 30
0.0
 11
-3685.5
 21
-2639.734979816648
 31
0.0
  0
LINE
  5
E5
  8
0_INFO
 62
     2
 10
-3685.5
 20
-2639.734979816648
 30
0.0
 11
-3685.5
 21
-2652.679874915184
 31
0.0
  0
LINE
  5
E6
  8
0_INFO
 62
     2
 10
-3685.5
 20
-2652.679874915184
 30
0.0
 11
-3698.0
 21
-2652.679874915184
 31
0.0
  0
LINE
  5
E7
  8
0_INFO
 62
     2
 10
-3698.0
 20
-2652.679874915184
 30
0.0
 11
-3698.0
 21
-2639.734979816648
 31
0.0
  0
LINE
  5
E8
  8
0_INFO
 62
     2
 10
-3672.0
 20
-2626.212214546702
 30
0.0
 11
-3684.5
 21
-2626.212214546702
 31
0.0
  0
LINE
  5
E9
  8
0_INFO
 62
     2
 10
-3684.5
 20
-2626.212214546702
 30
0.0
 11
-3684.5
 21
-2638.62477001372
 31
0.0
  0
LINE
  5
EA
  8
0_INFO
 62
     2
 10
-3684.5
 20
-2638.62477001372
 30
0.0
 11
-3672.0
 21
-2638.62477001372
 31
0.0
  0
LINE
  5
EB
  8
0_INFO
 62
     2
 10
-3672.0
 20
-2638.62477001372
 30
0.0
 11
-3672.0
 21
-2626.212214546702
 31
0.0
  0
LINE
  5
EC
  8
0_INFO
 62
     2
 10
-3698.0
 20
-2638.62477001372
 30
0.0
 11
-3685.5
 21
-2638.62477001372
 31
0.0
  0
LINE
  5
ED
  8
0_INFO
 62
     2
 10
-3685.5
 20
-2638.62477001372
 30
0.0
 11
-3685.5
 21
-2626.212214546702
 31
0.0
  0
LINE
  5
EE
  8
0_INFO
 62
     2
 10
-3685.5
 20
-2626.212214546702
 30
0.0
 11
-3698.0
 21
-2626.212214546702
 31
0.0
  0
LINE
  5
EF
  8
0_INFO
 62
     2
 10
-3698.0
 20
-2626.212214546702
 30
0.0
 11
-3698.0
 21
-2638.62477001372
 31
0.0
  0
LINE
  5
F0
  8
0_INFO
 62
     2
 10
-3672.0
 20
-2625.147535283666
 30
0.0
 11
-3684.5
 21
-2625.147535283666
 31
0.0
  0
LINE
  5
F1
  8
0_INFO
 62
     2
 10
-3684.5
 20
-2625.147535283666
 30
0.0
 11
-3684.5
 21
-2612.734979816648
 31
0.0
  0
LINE
  5
F2
  8
0_INFO
 62
     2
 10
-3684.5
 20
-2612.734979816648
 30
0.0
 11
-3672.0
 21
-2612.734979816648
 31
0.0
  0
LINE
  5
F3
  8
0_INFO
 62
     2
 10
-3672.0
 20
-2612.734979816648
 30
0.0
 11
-3672.0
 21
-2625.147535283666
 31
0.0
  0
LINE
  5
F4
  8
0_INFO
 62
     2
 10
-3698.0
 20
-2612.734979816648
 30
0.0
 11
-3685.5
 21
-2612.734979816648
 31
0.0
  0
LINE
  5
F5
  8
0_INFO
 62
     2
 10
-3685.5
 20
-2612.734979816648
 30
0.0
 11
-3685.5
 21
-2625.147535283666
 31
0.0
  0
LINE
  5
F6
  8
0_INFO
 62
     2
 10
-3685.5
 20
-2625.147535283666
 30
0.0
 11
-3698.0
 21
-2625.147535283666
 31
0.0
  0
LINE
  5
F7
  8
0_INFO
 62
     2
 10
-3698.0
 20
-2625.147535283666
 30
0.0
 11
-3698.0
 21
-2612.734979816648
 31
0.0
  0
LINE
  5
F8
  8
0_INFO
 62
     2
 10
-3672.0
 20
-2598.679874915184
 30
0.0
 11
-3684.5
 21
-2598.679874915184
 31
0.0
  0
LINE
  5
F9
  8
0_INFO
 62
     2
 10
-3684.5
 20
-2598.679874915184
 30
0.0
 11
-3684.5
 21
-2611.62477001372
 31
0.0
  0
LINE
  5
FA
  8
0_INFO
 62
     2
 10
-3684.5
 20
-2611.62477001372
 30
0.0
 11
-3672.0
 21
-2611.62477001372
 31
0.0
  0
LINE
  5
FB
  8
0_INFO
 62
     2
 10
-3672.0
 20
-2611.62477001372
 30
0.0
 11
-3672.0
 21
-2598.679874915184
 31
0.0
  0
LINE
  5
FC
  8
0_INFO
 62
     2
 10
-3698.0
 20
-2611.62477001372
 30
0.0
 11
-3685.5
 21
-2611.62477001372
 31
0.0
  0
LINE
  5
FD
  8
0_INFO
 62
     2
 10
-3685.5
 20
-2611.62477001372
 30
0.0
 11
-3685.5
 21
-2598.679874915184
 31
0.0
  0
LINE
  5
FE
  8
0_INFO
 62
     2
 10
-3685.5
 20
-2598.679874915184
 30
0.0
 11
-3698.0
 21
-2598.679874915184
 31
0.0
  0
LINE
  5
FF
  8
0_INFO
 62
     2
 10
-3698.0
 20
-2598.679874915184
 30
0.0
 11
-3698.0
 21
-2611.62477001372
 31
0.0
  0
LINE
  5
100
  8
0_INFO
 62
     2
 10
-3638.000000000001
 20
-2652.679874915184
 30
0.0
 11
-3625.500000000001
 21
-2652.679874915184
 31
0.0
  0
LINE
  5
101
  8
0_INFO
 62
     2
 10
-3625.500000000001
 20
-2652.679874915184
 30
0.0
 11
-3625.500000000001
 21
-2639.734979816648
 31
0.0
  0
LINE
  5
102
  8
0_INFO
 62
     2
 10
-3625.500000000001
 20
-2639.734979816648
 30
0.0
 11
-3638.000000000001
 21
-2639.734979816648
 31
0.0
  0
LINE
  5
103
  8
0_INFO
 62
     2
 10
-3638.000000000001
 20
-2639.734979816648
 30
0.0
 11
-3638.000000000001
 21
-2652.679874915184
 31
0.0
  0
LINE
  5
104
  8
0_INFO
 62
     2
 10
-3612.000000000001
 20
-2639.734979816648
 30
0.0
 11
-3624.500000000001
 21
-2639.734979816648
 31
0.0
  0
LINE
  5
105
  8
0_INFO
 62
     2
 10
-3624.500000000001
 20
-2639.734979816648
 30
0.0
 11
-3624.500000000001
 21
-2652.679874915184
 31
0.0
  0
LINE
  5
106
  8
0_INFO
 62
     2
 10
-3624.500000000001
 20
-2652.679874915184
 30
0.0
 11
-3612.000000000001
 21
-2652.679874915184
 31
0.0
  0
LINE
  5
107
  8
0_INFO
 62
     2
 10
-3612.000000000001
 20
-2652.679874915184
 30
0.0
 11
-3612.000000000001
 21
-2639.734979816648
 31
0.0
  0
LINE
  5
108
  8
0_INFO
 62
     2
 10
-3638.000000000001
 20
-2626.212214546702
 30
0.0
 11
-3625.500000000001
 21
-2626.212214546702
 31
0.0
  0
LINE
  5
109
  8
0_INFO
 62
     2
 10
-3625.500000000001
 20
-2626.212214546702
 30
0.0
 11
-3625.500000000001
 21
-2638.62477001372
 31
0.0
  0
LINE
  5
10A
  8
0_INFO
 62
     2
 10
-3625.500000000001
 20
-2638.62477001372
 30
0.0
 11
-3638.000000000001
 21
-2638.62477001372
 31
0.0
  0
LINE
  5
10B
  8
0_INFO
 62
     2
 10
-3638.000000000001
 20
-2638.62477001372
 30
0.0
 11
-3638.000000000001
 21
-2626.212214546702
 31
0.0
  0
LINE
  5
10C
  8
0_INFO
 62
     2
 10
-3612.000000000001
 20
-2638.62477001372
 30
0.0
 11
-3624.500000000001
 21
-2638.62477001372
 31
0.0
  0
LINE
  5
10D
  8
0_INFO
 62
     2
 10
-3624.500000000001
 20
-2638.62477001372
 30
0.0
 11
-3624.500000000001
 21
-2626.212214546702
 31
0.0
  0
LINE
  5
10E
  8
0_INFO
 62
     2
 10
-3624.500000000001
 20
-2626.212214546702
 30
0.0
 11
-3612.000000000001
 21
-2626.212214546702
 31
0.0
  0
LINE
  5
10F
  8
0_INFO
 62
     2
 10
-3612.000000000001
 20
-2626.212214546702
 30
0.0
 11
-3612.000000000001
 21
-2638.62477001372
 31
0.0
  0
LINE
  5
110
  8
0_INFO
 62
     2
 10
-3638.000000000001
 20
-2625.147535283666
 30
0.0
 11
-3625.500000000001
 21
-2625.147535283666
 31
0.0
  0
LINE
  5
111
  8
0_INFO
 62
     2
 10
-3625.500000000001
 20
-2625.147535283666
 30
0.0
 11
-3625.500000000001
 21
-2612.734979816648
 31
0.0
  0
LINE
  5
112
  8
0_INFO
 62
     2
 10
-3625.500000000001
 20
-2612.734979816648
 30
0.0
 11
-3638.000000000001
 21
-2612.734979816648
 31
0.0
  0
LINE
  5
113
  8
0_INFO
 62
     2
 10
-3638.000000000001
 20
-2612.734979816648
 30
0.0
 11
-3638.000000000001
 21
-2625.147535283666
 31
0.0
  0
LINE
  5
114
  8
0_INFO
 62
     2
 10
-3612.000000000001
 20
-2612.734979816648
 30
0.0
 11
-3624.500000000001
 21
-2612.734979816648
 31
0.0
  0
LINE
  5
115
  8
0_INFO
 62
     2
 10
-3624.500000000001
 20
-2612.734979816648
 30
0.0
 11
-3624.500000000001
 21
-2625.147535283666
 31
0.0
  0
LINE
  5
116
  8
0_INFO
 62
     2
 10
-3624.500000000001
 20
-2625.147535283666
 30
0.0
 11
-3612.000000000001
 21
-2625.147535283666
 31
0.0
  0
LINE
  5
117
  8
0_INFO
 62
     2
 10
-3612.000000000001
 20
-2625.147535283666
 30
0.0
 11
-3612.000000000001
 21
-2612.734979816648
 31
0.0
  0
LINE
  5
118
  8
0_INFO
 62
     2
 10
-3638.000000000001
 20
-2598.679874915184
 30
0.0
 11
-3625.500000000001
 21
-2598.679874915184
 31
0.0
  0
LINE
  5
119
  8
0_INFO
 62
     2
 10
-3625.500000000001
 20
-2598.679874915184
 30
0.0
 11
-3625.500000000001
 21
-2611.62477001372
 31
0.0
  0
LINE
  5
11A
  8
0_INFO
 62
     2
 10
-3625.500000000001
 20
-2611.62477001372
 30
0.0
 11
-3638.000000000001
 21
-2611.62477001372
 31
0.0
  0
LINE
  5
11B
  8
0_INFO
 62
     2
 10
-3638.000000000001
 20
-2611.62477001372
 30
0.0
 11
-3638.000000000001
 21
-2598.679874915184
 31
0.0
  0
LINE
  5
11C
  8
0_INFO
 62
     2
 10
-3612.000000000001
 20
-2611.62477001372
 30
0.0
 11
-3624.500000000001
 21
-2611.62477001372
 31
0.0
  0
LINE
  5
11D
  8
0_INFO
 62
     2
 10
-3624.500000000001
 20
-2611.62477001372
 30
0.0
 11
-3624.500000000001
 21
-2598.679874915184
 31
0.0
  0
LINE
  5
11E
  8
0_INFO
 62
     2
 10
-3624.500000000001
 20
-2598.679874915184
 30
0.0
 11
-3612.000000000001
 21
-2598.679874915184
 31
0.0
  0
LINE
  5
11F
  8
0_INFO
 62
     2
 10
-3612.000000000001
 20
-2598.679874915184
 30
0.0
 11
-3612.000000000001
 21
-2611.62477001372
 31
0.0
  0
LINE
  5
120
  8
0_INFO
 62
     2
 10
-3572.0
 20
-2652.679874915184
 30
0.0
 11
-3584.5
 21
-2652.679874915184
 31
0.0
  0
LINE
  5
121
  8
0_INFO
 62
     2
 10
-3584.5
 20
-2652.679874915184
 30
0.0
 11
-3584.5
 21
-2639.734979816648
 31
0.0
  0
LINE
  5
122
  8
0_INFO
 62
     2
 10
-3584.5
 20
-2639.734979816648
 30
0.0
 11
-3572.0
 21
-2639.734979816648
 31
0.0
  0
LINE
  5
123
  8
0_INFO
 62
     2
 10
-3572.0
 20
-2639.734979816648
 30
0.0
 11
-3572.0
 21
-2652.679874915184
 31
0.0
  0
LINE
  5
124
  8
0_INFO
 62
     2
 10
-3598.0
 20
-2639.734979816648
 30
0.0
 11
-3585.5
 21
-2639.734979816648
 31
0.0
  0
LINE
  5
125
  8
0_INFO
 62
     2
 10
-3585.5
 20
-2639.734979816648
 30
0.0
 11
-3585.5
 21
-2652.679874915184
 31
0.0
  0
LINE
  5
126
  8
0_INFO
 62
     2
 10
-3585.5
 20
-2652.679874915184
 30
0.0
 11
-3598.0
 21
-2652.679874915184
 31
0.0
  0
LINE
  5
127
  8
0_INFO
 62
     2
 10
-3598.0
 20
-2652.679874915184
 30
0.0
 11
-3598.0
 21
-2639.734979816648
 31
0.0
  0
LINE
  5
128
  8
0_INFO
 62
     2
 10
-3572.0
 20
-2626.212214546702
 30
0.0
 11
-3584.5
 21
-2626.212214546702
 31
0.0
  0
LINE
  5
129
  8
0_INFO
 62
     2
 10
-3584.5
 20
-2626.212214546702
 30
0.0
 11
-3584.5
 21
-2638.62477001372
 31
0.0
  0
LINE
  5
12A
  8
0_INFO
 62
     2
 10
-3584.5
 20
-2638.62477001372
 30
0.0
 11
-3572.0
 21
-2638.62477001372
 31
0.0
  0
LINE
  5
12B
  8
0_INFO
 62
     2
 10
-3572.0
 20
-2638.62477001372
 30
0.0
 11
-3572.0
 21
-2626.212214546702
 31
0.0
  0
LINE
  5
12C
  8
0_INFO
 62
     2
 10
-3598.0
 20
-2638.62477001372
 30
0.0
 11
-3585.5
 21
-2638.62477001372
 31
0.0
  0
LINE
  5
12D
  8
0_INFO
 62
     2
 10
-3585.5
 20
-2638.62477001372
 30
0.0
 11
-3585.5
 21
-2626.212214546702
 31
0.0
  0
LINE
  5
12E
  8
0_INFO
 62
     2
 10
-3585.5
 20
-2626.212214546702
 30
0.0
 11
-3598.0
 21
-2626.212214546702
 31
0.0
  0
LINE
  5
12F
  8
0_INFO
 62
     2
 10
-3598.0
 20
-2626.212214546702
 30
0.0
 11
-3598.0
 21
-2638.62477001372
 31
0.0
  0
LINE
  5
130
  8
0_INFO
 62
     2
 10
-3572.0
 20
-2625.147535283666
 30
0.0
 11
-3584.5
 21
-2625.147535283666
 31
0.0
  0
LINE
  5
131
  8
0_INFO
 62
     2
 10
-3584.5
 20
-2625.147535283666
 30
0.0
 11
-3584.5
 21
-2612.734979816648
 31
0.0
  0
LINE
  5
132
  8
0_INFO
 62
     2
 10
-3584.5
 20
-2612.734979816648
 30
0.0
 11
-3572.0
 21
-2612.734979816648
 31
0.0
  0
LINE
  5
133
  8
0_INFO
 62
     2
 10
-3572.0
 20
-2612.734979816648
 30
0.0
 11
-3572.0
 21
-2625.147535283666
 31
0.0
  0
LINE
  5
134
  8
0_INFO
 62
     2
 10
-3598.0
 20
-2612.734979816648
 30
0.0
 11
-3585.5
 21
-2612.734979816648
 31
0.0
  0
LINE
  5
135
  8
0_INFO
 62
     2
 10
-3585.5
 20
-2612.734979816648
 30
0.0
 11
-3585.5
 21
-2625.147535283666
 31
0.0
  0
LINE
  5
136
  8
0_INFO
 62
     2
 10
-3585.5
 20
-2625.147535283666
 30
0.0
 11
-3598.0
 21
-2625.147535283666
 31
0.0
  0
LINE
  5
137
  8
0_INFO
 62
     2
 10
-3598.0
 20
-2625.147535283666
 30
0.0
 11
-3598.0
 21
-2612.734979816648
 31
0.0
  0
LINE
  5
138
  8
0_INFO
 62
     2
 10
-3572.0
 20
-2598.679874915184
 30
0.0
 11
-3584.5
 21
-2598.679874915184
 31
0.0
  0
LINE
  5
139
  8
0_INFO
 62
     2
 10
-3584.5
 20
-2598.679874915184
 30
0.0
 11
-3584.5
 21
-2611.62477001372
 31
0.0
  0
LINE
  5
13A
  8
0_INFO
 62
     2
 10
-3584.5
 20
-2611.62477001372
 30
0.0
 11
-3572.0
 21
-2611.62477001372
 31
0.0
  0
LINE
  5
13B
  8
0_INFO
 62
     2
 10
-3572.0
 20
-2611.62477001372
 30
0.0
 11
-3572.0
 21
-2598.679874915184
 31
0.0
  0
LINE
  5
13C
  8
0_INFO
 62
     2
 10
-3598.0
 20
-2611.62477001372
 30
0.0
 11
-3585.5
 21
-2611.62477001372
 31
0.0
  0
LINE
  5
13D
  8
0_INFO
 62
     2
 10
-3585.5
 20
-2611.62477001372
 30
0.0
 11
-3585.5
 21
-2598.679874915184
 31
0.0
  0
LINE
  5
13E
  8
0_INFO
 62
     2
 10
-3585.5
 20
-2598.679874915184
 30
0.0
 11
-3598.0
 21
-2598.679874915184
 31
0.0
  0
LINE
  5
13F
  8
0_INFO
 62
     2
 10
-3598.0
 20
-2598.679874915184
 30
0.0
 11
-3598.0
 21
-2611.62477001372
 31
0.0
  0
LINE
  5
140
  8
0_INFO
 62
     2
 10
-3558.000000000001
 20
-2652.679874915184
 30
0.0
 11
-3545.500000000001
 21
-2652.679874915184
 31
0.0
  0
LINE
  5
141
  8
0_INFO
 62
     2
 10
-3545.500000000001
 20
-2652.679874915184
 30
0.0
 11
-3545.500000000001
 21
-2639.734979816648
 31
0.0
  0
LINE
  5
142
  8
0_INFO
 62
     2
 10
-3545.500000000001
 20
-2639.734979816648
 30
0.0
 11
-3558.000000000001
 21
-2639.734979816648
 31
0.0
  0
LINE
  5
143
  8
0_INFO
 62
     2
 10
-3558.000000000001
 20
-2639.734979816648
 30
0.0
 11
-3558.000000000001
 21
-2652.679874915184
 31
0.0
  0
LINE
  5
144
  8
0_INFO
 62
     2
 10
-3532.000000000001
 20
-2639.734979816648
 30
0.0
 11
-3544.500000000001
 21
-2639.734979816648
 31
0.0
  0
LINE
  5
145
  8
0_INFO
 62
     2
 10
-3544.500000000001
 20
-2639.734979816648
 30
0.0
 11
-3544.500000000001
 21
-2652.679874915184
 31
0.0
  0
LINE
  5
146
  8
0_INFO
 62
     2
 10
-3544.500000000001
 20
-2652.679874915184
 30
0.0
 11
-3532.000000000001
 21
-2652.679874915184
 31
0.0
  0
LINE
  5
147
  8
0_INFO
 62
     2
 10
-3532.000000000001
 20
-2652.679874915184
 30
0.0
 11
-3532.000000000001
 21
-2639.734979816648
 31
0.0
  0
LINE
  5
148
  8
0_INFO
 62
     2
 10
-3558.000000000001
 20
-2626.212214546702
 30
0.0
 11
-3545.500000000001
 21
-2626.212214546702
 31
0.0
  0
LINE
  5
149
  8
0_INFO
 62
     2
 10
-3545.500000000001
 20
-2626.212214546702
 30
0.0
 11
-3545.500000000001
 21
-2638.62477001372
 31
0.0
  0
LINE
  5
14A
  8
0_INFO
 62
     2
 10
-3545.500000000001
 20
-2638.62477001372
 30
0.0
 11
-3558.000000000001
 21
-2638.62477001372
 31
0.0
  0
LINE
  5
14B
  8
0_INFO
 62
     2
 10
-3558.000000000001
 20
-2638.62477001372
 30
0.0
 11
-3558.000000000001
 21
-2626.212214546702
 31
0.0
  0
LINE
  5
14C
  8
0_INFO
 62
     2
 10
-3532.000000000001
 20
-2638.62477001372
 30
0.0
 11
-3544.500000000001
 21
-2638.62477001372
 31
0.0
  0
LINE
  5
14D
  8
0_INFO
 62
     2
 10
-3544.500000000001
 20
-2638.62477001372
 30
0.0
 11
-3544.500000000001
 21
-2626.212214546702
 31
0.0
  0
LINE
  5
14E
  8
0_INFO
 62
     2
 10
-3544.500000000001
 20
-2626.212214546702
 30
0.0
 11
-3532.000000000001
 21
-2626.212214546702
 31
0.0
  0
LINE
  5
14F
  8
0_INFO
 62
     2
 10
-3532.000000000001
 20
-2626.212214546702
 30
0.0
 11
-3532.000000000001
 21
-2638.62477001372
 31
0.0
  0
LINE
  5
150
  8
0_INFO
 62
     2
 10
-3558.000000000001
 20
-2625.147535283666
 30
0.0
 11
-3545.500000000001
 21
-2625.147535283666
 31
0.0
  0
LINE
  5
151
  8
0_INFO
 62
     2
 10
-3545.500000000001
 20
-2625.147535283666
 30
0.0
 11
-3545.500000000001
 21
-2612.734979816648
 31
0.0
  0
LINE
  5
152
  8
0_INFO
 62
     2
 10
-3545.500000000001
 20
-2612.734979816648
 30
0.0
 11
-3558.000000000001
 21
-2612.734979816648
 31
0.0
  0
LINE
  5
153
  8
0_INFO
 62
     2
 10
-3558.000000000001
 20
-2612.734979816648
 30
0.0
 11
-3558.000000000001
 21
-2625.147535283666
 31
0.0
  0
LINE
  5
154
  8
0_INFO
 62
     2
 10
-3532.000000000001
 20
-2612.734979816648
 30
0.0
 11
-3544.500000000001
 21
-2612.734979816648
 31
0.0
  0
LINE
  5
155
  8
0_INFO
 62
     2
 10
-3544.500000000001
 20
-2612.734979816648
 30
0.0
 11
-3544.500000000001
 21
-2625.147535283666
 31
0.0
  0
LINE
  5
156
  8
0_INFO
 62
     2
 10
-3544.500000000001
 20
-2625.147535283666
 30
0.0
 11
-3532.000000000001
 21
-2625.147535283666
 31
0.0
  0
LINE
  5
157
  8
0_INFO
 62
     2
 10
-3532.000000000001
 20
-2625.147535283666
 30
0.0
 11
-3532.000000000001
 21
-2612.734979816648
 31
0.0
  0
LINE
  5
158
  8
0_INFO
 62
     2
 10
-3558.000000000001
 20
-2598.679874915184
 30
0.0
 11
-3545.500000000001
 21
-2598.679874915184
 31
0.0
  0
LINE
  5
159
  8
0_INFO
 62
     2
 10
-3545.500000000001
 20
-2598.679874915184
 30
0.0
 11
-3545.500000000001
 21
-2611.62477001372
 31
0.0
  0
LINE
  5
15A
  8
0_INFO
 62
     2
 10
-3545.500000000001
 20
-2611.62477001372
 30
0.0
 11
-3558.000000000001
 21
-2611.62477001372
 31
0.0
  0
LINE
  5
15B
  8
0_INFO
 62
     2
 10
-3558.000000000001
 20
-2611.62477001372
 30
0.0
 11
-3558.000000000001
 21
-2598.679874915184
 31
0.0
  0
LINE
  5
15C
  8
0_INFO
 62
     2
 10
-3532.000000000001
 20
-2611.62477001372
 30
0.0
 11
-3544.500000000001
 21
-2611.62477001372
 31
0.0
  0
LINE
  5
15D
  8
0_INFO
 62
     2
 10
-3544.500000000001
 20
-2611.62477001372
 30
0.0
 11
-3544.500000000001
 21
-2598.679874915184
 31
0.0
  0
LINE
  5
15E
  8
0_INFO
 62
     2
 10
-3544.500000000001
 20
-2598.679874915184
 30
0.0
 11
-3532.000000000001
 21
-2598.679874915184
 31
0.0
  0
LINE
  5
15F
  8
0_INFO
 62
     2
 10
-3532.000000000001
 20
-2598.679874915184
 30
0.0
 11
-3532.000000000001
 21
-2611.62477001372
 31
0.0
  0
LINE
  5
160
  8
0_INFO
 62
     2
 10
-3492.0
 20
-2652.679874915184
 30
0.0
 11
-3504.5
 21
-2652.679874915184
 31
0.0
  0
LINE
  5
161
  8
0_INFO
 62
     2
 10
-3504.5
 20
-2652.679874915184
 30
0.0
 11
-3504.5
 21
-2639.734979816648
 31
0.0
  0
LINE
  5
162
  8
0_INFO
 62
     2
 10
-3504.5
 20
-2639.734979816648
 30
0.0
 11
-3492.0
 21
-2639.734979816648
 31
0.0
  0
LINE
  5
163
  8
0_INFO
 62
     2
 10
-3492.0
 20
-2639.734979816648
 30
0.0
 11
-3492.0
 21
-2652.679874915184
 31
0.0
  0
LINE
  5
164
  8
0_INFO
 62
     2
 10
-3518.0
 20
-2639.734979816648
 30
0.0
 11
-3505.5
 21
-2639.734979816648
 31
0.0
  0
LINE
  5
165
  8
0_INFO
 62
     2
 10
-3505.5
 20
-2639.734979816648
 30
0.0
 11
-3505.5
 21
-2652.679874915184
 31
0.0
  0
LINE
  5
166
  8
0_INFO
 62
     2
 10
-3505.5
 20
-2652.679874915184
 30
0.0
 11
-3518.0
 21
-2652.679874915184
 31
0.0
  0
LINE
  5
167
  8
0_INFO
 62
     2
 10
-3518.0
 20
-2652.679874915184
 30
0.0
 11
-3518.0
 21
-2639.734979816648
 31
0.0
  0
LINE
  5
168
  8
0_INFO
 62
     2
 10
-3492.0
 20
-2626.212214546702
 30
0.0
 11
-3504.5
 21
-2626.212214546702
 31
0.0
  0
LINE
  5
169
  8
0_INFO
 62
     2
 10
-3504.5
 20
-2626.212214546702
 30
0.0
 11
-3504.5
 21
-2638.62477001372
 31
0.0
  0
LINE
  5
16A
  8
0_INFO
 62
     2
 10
-3504.5
 20
-2638.62477001372
 30
0.0
 11
-3492.0
 21
-2638.62477001372
 31
0.0
  0
LINE
  5
16B
  8
0_INFO
 62
     2
 10
-3492.0
 20
-2638.62477001372
 30
0.0
 11
-3492.0
 21
-2626.212214546702
 31
0.0
  0
LINE
  5
16C
  8
0_INFO
 62
     2
 10
-3518.0
 20
-2638.62477001372
 30
0.0
 11
-3505.5
 21
-2638.62477001372
 31
0.0
  0
LINE
  5
16D
  8
0_INFO
 62
     2
 10
-3505.5
 20
-2638.62477001372
 30
0.0
 11
-3505.5
 21
-2626.212214546702
 31
0.0
  0
LINE
  5
16E
  8
0_INFO
 62
     2
 10
-3505.5
 20
-2626.212214546702
 30
0.0
 11
-3518.0
 21
-2626.212214546702
 31
0.0
  0
LINE
  5
16F
  8
0_INFO
 62
     2
 10
-3518.0
 20
-2626.212214546702
 30
0.0
 11
-3518.0
 21
-2638.62477001372
 31
0.0
  0
LINE
  5
170
  8
0_INFO
 62
     2
 10
-3492.0
 20
-2625.147535283666
 30
0.0
 11
-3504.5
 21
-2625.147535283666
 31
0.0
  0
LINE
  5
171
  8
0_INFO
 62
     2
 10
-3504.5
 20
-2625.147535283666
 30
0.0
 11
-3504.5
 21
-2612.734979816648
 31
0.0
  0
LINE
  5
172
  8
0_INFO
 62
     2
 10
-3504.5
 20
-2612.734979816648
 30
0.0
 11
-3492.0
 21
-2612.734979816648
 31
0.0
  0
LINE
  5
173
  8
0_INFO
 62
     2
 10
-3492.0
 20
-2612.734979816648
 30
0.0
 11
-3492.0
 21
-2625.147535283666
 31
0.0
  0
LINE
  5
174
  8
0_INFO
 62
     2
 10
-3518.0
 20
-2612.734979816648
 30
0.0
 11
-3505.5
 21
-2612.734979816648
 31
0.0
  0
LINE
  5
175
  8
0_INFO
 62
     2
 10
-3505.5
 20
-2612.734979816648
 30
0.0
 11
-3505.5
 21
-2625.147535283666
 31
0.0
  0
LINE
  5
176
  8
0_INFO
 62
     2
 10
-3505.5
 20
-2625.147535283666
 30
0.0
 11
-3518.0
 21
-2625.147535283666
 31
0.0
  0
LINE
  5
177
  8
0_INFO
 62
     2
 10
-3518.0
 20
-2625.147535283666
 30
0.0
 11
-3518.0
 21
-2612.734979816648
 31
0.0
  0
LINE
  5
178
  8
0_INFO
 62
     2
 10
-3492.0
 20
-2598.679874915184
 30
0.0
 11
-3504.5
 21
-2598.679874915184
 31
0.0
  0
LINE
  5
179
  8
0_INFO
 62
     2
 10
-3504.5
 20
-2598.679874915184
 30
0.0
 11
-3504.5
 21
-2611.62477001372
 31
0.0
  0
LINE
  5
17A
  8
0_INFO
 62
     2
 10
-3504.5
 20
-2611.62477001372
 30
0.0
 11
-3492.0
 21
-2611.62477001372
 31
0.0
  0
LINE
  5
17B
  8
0_INFO
 62
     2
 10
-3492.0
 20
-2611.62477001372
 30
0.0
 11
-3492.0
 21
-2598.679874915184
 31
0.0
  0
LINE
  5
17C
  8
0_INFO
 62
     2
 10
-3518.0
 20
-2611.62477001372
 30
0.0
 11
-3505.5
 21
-2611.62477001372
 31
0.0
  0
LINE
  5
17D
  8
0_INFO
 62
     2
 10
-3505.5
 20
-2611.62477001372
 30
0.0
 11
-3505.5
 21
-2598.679874915184
 31
0.0
  0
LINE
  5
17E
  8
0_INFO
 62
     2
 10
-3505.5
 20
-2598.679874915184
 30
0.0
 11
-3518.0
 21
-2598.679874915184
 31
0.0
  0
LINE
  5
17F
  8
0_INFO
 62
     2
 10
-3518.0
 20
-2598.679874915184
 30
0.0
 11
-3518.0
 21
-2611.62477001372
 31
0.0
  0
LINE
  5
180
  8
0_INFO
 62
     2
 10
-3478.000000000001
 20
-2652.679874915184
 30
0.0
 11
-3465.500000000001
 21
-2652.679874915184
 31
0.0
  0
LINE
  5
181
  8
0_INFO
 62
     2
 10
-3465.500000000001
 20
-2652.679874915184
 30
0.0
 11
-3465.500000000001
 21
-2639.734979816648
 31
0.0
  0
LINE
  5
182
  8
0_INFO
 62
     2
 10
-3465.500000000001
 20
-2639.734979816648
 30
0.0
 11
-3478.000000000001
 21
-2639.734979816648
 31
0.0
  0
LINE
  5
183
  8
0_INFO
 62
     2
 10
-3478.000000000001
 20
-2639.734979816648
 30
0.0
 11
-3478.000000000001
 21
-2652.679874915184
 31
0.0
  0
LINE
  5
184
  8
0_INFO
 62
     2
 10
-3452.000000000001
 20
-2639.734979816648
 30
0.0
 11
-3464.500000000001
 21
-2639.734979816648
 31
0.0
  0
LINE
  5
185
  8
0_INFO
 62
     2
 10
-3464.500000000001
 20
-2639.734979816648
 30
0.0
 11
-3464.500000000001
 21
-2652.679874915184
 31
0.0
  0
LINE
  5
186
  8
0_INFO
 62
     2
 10
-3464.500000000001
 20
-2652.679874915184
 30
0.0
 11
-3452.000000000001
 21
-2652.679874915184
 31
0.0
  0
LINE
  5
187
  8
0_INFO
 62
     2
 10
-3452.000000000001
 20
-2652.679874915184
 30
0.0
 11
-3452.000000000001
 21
-2639.734979816648
 31
0.0
  0
LINE
  5
188
  8
0_INFO
 62
     2
 10
-3478.000000000001
 20
-2626.212214546702
 30
0.0
 11
-3465.500000000001
 21
-2626.212214546702
 31
0.0
  0
LINE
  5
189
  8
0_INFO
 62
     2
 10
-3465.500000000001
 20
-2626.212214546702
 30
0.0
 11
-3465.500000000001
 21
-2638.62477001372
 31
0.0
  0
LINE
  5
18A
  8
0_INFO
 62
     2
 10
-3465.500000000001
 20
-2638.62477001372
 30
0.0
 11
-3478.000000000001
 21
-2638.62477001372
 31
0.0
  0
LINE
  5
18B
  8
0_INFO
 62
     2
 10
-3478.000000000001
 20
-2638.62477001372
 30
0.0
 11
-3478.000000000001
 21
-2626.212214546702
 31
0.0
  0
LINE
  5
18C
  8
0_INFO
 62
     2
 10
-3452.000000000001
 20
-2638.62477001372
 30
0.0
 11
-3464.500000000001
 21
-2638.62477001372
 31
0.0
  0
LINE
  5
18D
  8
0_INFO
 62
     2
 10
-3464.500000000001
 20
-2638.62477001372
 30
0.0
 11
-3464.500000000001
 21
-2626.212214546702
 31
0.0
  0
LINE
  5
18E
  8
0_INFO
 62
     2
 10
-3464.500000000001
 20
-2626.212214546702
 30
0.0
 11
-3452.000000000001
 21
-2626.212214546702
 31
0.0
  0
LINE
  5
18F
  8
0_INFO
 62
     2
 10
-3452.000000000001
 20
-2626.212214546702
 30
0.0
 11
-3452.000000000001
 21
-2638.62477001372
 31
0.0
  0
LINE
  5
190
  8
0_INFO
 62
     2
 10
-3478.000000000001
 20
-2625.147535283666
 30
0.0
 11
-3465.500000000001
 21
-2625.147535283666
 31
0.0
  0
LINE
  5
191
  8
0_INFO
 62
     2
 10
-3465.500000000001
 20
-2625.147535283666
 30
0.0
 11
-3465.500000000001
 21
-2612.734979816648
 31
0.0
  0
LINE
  5
192
  8
0_INFO
 62
     2
 10
-3465.500000000001
 20
-2612.734979816648
 30
0.0
 11
-3478.000000000001
 21
-2612.734979816648
 31
0.0
  0
LINE
  5
193
  8
0_INFO
 62
     2
 10
-3478.000000000001
 20
-2612.734979816648
 30
0.0
 11
-3478.000000000001
 21
-2625.147535283666
 31
0.0
  0
LINE
  5
194
  8
0_INFO
 62
     2
 10
-3452.000000000001
 20
-2612.734979816648
 30
0.0
 11
-3464.500000000001
 21
-2612.734979816648
 31
0.0
  0
LINE
  5
195
  8
0_INFO
 62
     2
 10
-3464.500000000001
 20
-2612.734979816648
 30
0.0
 11
-3464.500000000001
 21
-2625.147535283666
 31
0.0
  0
LINE
  5
196
  8
0_INFO
 62
     2
 10
-3464.500000000001
 20
-2625.147535283666
 30
0.0
 11
-3452.000000000001
 21
-2625.147535283666
 31
0.0
  0
LINE
  5
197
  8
0_INFO
 62
     2
 10
-3452.000000000001
 20
-2625.147535283666
 30
0.0
 11
-3452.000000000001
 21
-2612.734979816648
 31
0.0
  0
LINE
  5
198
  8
0_INFO
 62
     2
 10
-3478.000000000001
 20
-2598.679874915184
 30
0.0
 11
-3465.500000000001
 21
-2598.679874915184
 31
0.0
  0
LINE
  5
199
  8
0_INFO
 62
     2
 10
-3465.500000000001
 20
-2598.679874915184
 30
0.0
 11
-3465.500000000001
 21
-2611.62477001372
 31
0.0
  0
LINE
  5
19A
  8
0_INFO
 62
     2
 10
-3465.500000000001
 20
-2611.62477001372
 30
0.0
 11
-3478.000000000001
 21
-2611.62477001372
 31
0.0
  0
LINE
  5
19B
  8
0_INFO
 62
     2
 10
-3478.000000000001
 20
-2611.62477001372
 30
0.0
 11
-3478.000000000001
 21
-2598.679874915184
 31
0.0
  0
LINE
  5
19C
  8
0_INFO
 62
     2
 10
-3452.000000000001
 20
-2611.62477001372
 30
0.0
 11
-3464.500000000001
 21
-2611.62477001372
 31
0.0
  0
LINE
  5
19D
  8
0_INFO
 62
     2
 10
-3464.500000000001
 20
-2611.62477001372
 30
0.0
 11
-3464.500000000001
 21
-2598.679874915184
 31
0.0
  0
LINE
  5
19E
  8
0_INFO
 62
     2
 10
-3464.500000000001
 20
-2598.679874915184
 30
0.0
 11
-3452.000000000001
 21
-2598.679874915184
 31
0.0
  0
LINE
  5
19F
  8
0_INFO
 62
     2
 10
-3452.000000000001
 20
-2598.679874915184
 30
0.0
 11
-3452.000000000001
 21
-2611.62477001372
 31
0.0
  0
LINE
  5
1A0
  8
0_INFO
 62
     2
 10
-3412.0
 20
-2652.679874915184
 30
0.0
 11
-3424.5
 21
-2652.679874915184
 31
0.0
  0
LINE
  5
1A1
  8
0_INFO
 62
     2
 10
-3424.5
 20
-2652.679874915184
 30
0.0
 11
-3424.5
 21
-2639.734979816648
 31
0.0
  0
LINE
  5
1A2
  8
0_INFO
 62
     2
 10
-3424.5
 20
-2639.734979816648
 30
0.0
 11
-3412.0
 21
-2639.734979816648
 31
0.0
  0
LINE
  5
1A3
  8
0_INFO
 62
     2
 10
-3412.0
 20
-2639.734979816648
 30
0.0
 11
-3412.0
 21
-2652.679874915184
 31
0.0
  0
LINE
  5
1A4
  8
0_INFO
 62
     2
 10
-3438.0
 20
-2639.734979816648
 30
0.0
 11
-3425.5
 21
-2639.734979816648
 31
0.0
  0
LINE
  5
1A5
  8
0_INFO
 62
     2
 10
-3425.5
 20
-2639.734979816648
 30
0.0
 11
-3425.5
 21
-2652.679874915184
 31
0.0
  0
LINE
  5
1A6
  8
0_INFO
 62
     2
 10
-3425.5
 20
-2652.679874915184
 30
0.0
 11
-3438.0
 21
-2652.679874915184
 31
0.0
  0
LINE
  5
1A7
  8
0_INFO
 62
     2
 10
-3438.0
 20
-2652.679874915184
 30
0.0
 11
-3438.0
 21
-2639.734979816648
 31
0.0
  0
LINE
  5
1A8
  8
0_INFO
 62
     2
 10
-3412.0
 20
-2626.212214546702
 30
0.0
 11
-3424.5
 21
-2626.212214546702
 31
0.0
  0
LINE
  5
1A9
  8
0_INFO
 62
     2
 10
-3424.5
 20
-2626.212214546702
 30
0.0
 11
-3424.5
 21
-2638.62477001372
 31
0.0
  0
LINE
  5
1AA
  8
0_INFO
 62
     2
 10
-3424.5
 20
-2638.62477001372
 30
0.0
 11
-3412.0
 21
-2638.62477001372
 31
0.0
  0
LINE
  5
1AB
  8
0_INFO
 62
     2
 10
-3412.0
 20
-2638.62477001372
 30
0.0
 11
-3412.0
 21
-2626.212214546702
 31
0.0
  0
LINE
  5
1AC
  8
0_INFO
 62
     2
 10
-3438.0
 20
-2638.62477001372
 30
0.0
 11
-3425.5
 21
-2638.62477001372
 31
0.0
  0
LINE
  5
1AD
  8
0_INFO
 62
     2
 10
-3425.5
 20
-2638.62477001372
 30
0.0
 11
-3425.5
 21
-2626.212214546702
 31
0.0
  0
LINE
  5
1AE
  8
0_INFO
 62
     2
 10
-3425.5
 20
-2626.212214546702
 30
0.0
 11
-3438.0
 21
-2626.212214546702
 31
0.0
  0
LINE
  5
1AF
  8
0_INFO
 62
     2
 10
-3438.0
 20
-2626.212214546702
 30
0.0
 11
-3438.0
 21
-2638.62477001372
 31
0.0
  0
LINE
  5
1B0
  8
0_INFO
 62
     2
 10
-3412.0
 20
-2625.147535283666
 30
0.0
 11
-3424.5
 21
-2625.147535283666
 31
0.0
  0
LINE
  5
1B1
  8
0_INFO
 62
     2
 10
-3424.5
 20
-2625.147535283666
 30
0.0
 11
-3424.5
 21
-2612.734979816648
 31
0.0
  0
LINE
  5
1B2
  8
0_INFO
 62
     2
 10
-3424.5
 20
-2612.734979816648
 30
0.0
 11
-3412.0
 21
-2612.734979816648
 31
0.0
  0
LINE
  5
1B3
  8
0_INFO
 62
     2
 10
-3412.0
 20
-2612.734979816648
 30
0.0
 11
-3412.0
 21
-2625.147535283666
 31
0.0
  0
LINE
  5
1B4
  8
0_INFO
 62
     2
 10
-3438.0
 20
-2612.734979816648
 30
0.0
 11
-3425.5
 21
-2612.734979816648
 31
0.0
  0
LINE
  5
1B5
  8
0_INFO
 62
     2
 10
-3425.5
 20
-2612.734979816648
 30
0.0
 11
-3425.5
 21
-2625.147535283666
 31
0.0
  0
LINE
  5
1B6
  8
0_INFO
 62
     2
 10
-3425.5
 20
-2625.147535283666
 30
0.0
 11
-3438.0
 21
-2625.147535283666
 31
0.0
  0
LINE
  5
1B7
  8
0_INFO
 62
     2
 10
-3438.0
 20
-2625.147535283666
 30
0.0
 11
-3438.0
 21
-2612.734979816648
 31
0.0
  0
LINE
  5
1B8
  8
0_INFO
 62
     2
 10
-3412.0
 20
-2598.679874915184
 30
0.0
 11
-3424.5
 21
-2598.679874915184
 31
0.0
  0
LINE
  5
1B9
  8
0_INFO
 62
     2
 10
-3424.5
 20
-2598.679874915184
 30
0.0
 11
-3424.5
 21
-2611.62477001372
 31
0.0
  0
LINE
  5
1BA
  8
0_INFO
 62
     2
 10
-3424.5
 20
-2611.62477001372
 30
0.0
 11
-3412.0
 21
-2611.62477001372
 31
0.0
  0
LINE
  5
1BB
  8
0_INFO
 62
     2
 10
-3412.0
 20
-2611.62477001372
 30
0.0
 11
-3412.0
 21
-2598.679874915184
 31
0.0
  0
LINE
  5
1BC
  8
0_INFO
 62
     2
 10
-3438.0
 20
-2611.62477001372
 30
0.0
 11
-3425.5
 21
-2611.62477001372
 31
0.0
  0
LINE
  5
1BD
  8
0_INFO
 62
     2
 10
-3425.5
 20
-2611.62477001372
 30
0.0
 11
-3425.5
 21
-2598.679874915184
 31
0.0
  0
LINE
  5
1BE
  8
0_INFO
 62
     2
 10
-3425.5
 20
-2598.679874915184
 30
0.0
 11
-3438.0
 21
-2598.679874915184
 31
0.0
  0
LINE
  5
1BF
  8
0_INFO
 62
     2
 10
-3438.0
 20
-2598.679874915184
 30
0.0
 11
-3438.0
 21
-2611.62477001372
 31
0.0
  0
LINE
  5
1C0
  8
0_INFO
 62
     2
 10
-3378.000000000001
 20
-2652.679874915184
 30
0.0
 11
-3365.500000000001
 21
-2652.679874915184
 31
0.0
  0
LINE
  5
1C1
  8
0_INFO
 62
     2
 10
-3365.500000000001
 20
-2652.679874915184
 30
0.0
 11
-3365.500000000001
 21
-2639.734979816648
 31
0.0
  0
LINE
  5
1C2
  8
0_INFO
 62
     2
 10
-3365.500000000001
 20
-2639.734979816648
 30
0.0
 11
-3378.000000000001
 21
-2639.734979816648
 31
0.0
  0
LINE
  5
1C3
  8
0_INFO
 62
     2
 10
-3378.000000000001
 20
-2639.734979816648
 30
0.0
 11
-3378.000000000001
 21
-2652.679874915184
 31
0.0
  0
LINE
  5
1C4
  8
0_INFO
 62
     2
 10
-3352.000000000001
 20
-2639.734979816648
 30
0.0
 11
-3364.500000000001
 21
-2639.734979816648
 31
0.0
  0
LINE
  5
1C5
  8
0_INFO
 62
     2
 10
-3364.500000000001
 20
-2639.734979816648
 30
0.0
 11
-3364.500000000001
 21
-2652.679874915184
 31
0.0
  0
LINE
  5
1C6
  8
0_INFO
 62
     2
 10
-3364.500000000001
 20
-2652.679874915184
 30
0.0
 11
-3352.000000000001
 21
-2652.679874915184
 31
0.0
  0
LINE
  5
1C7
  8
0_INFO
 62
     2
 10
-3352.000000000001
 20
-2652.679874915184
 30
0.0
 11
-3352.000000000001
 21
-2639.734979816648
 31
0.0
  0
LINE
  5
1C8
  8
0_INFO
 62
     2
 10
-3378.000000000001
 20
-2626.212214546702
 30
0.0
 11
-3365.500000000001
 21
-2626.212214546702
 31
0.0
  0
LINE
  5
1C9
  8
0_INFO
 62
     2
 10
-3365.500000000001
 20
-2626.212214546702
 30
0.0
 11
-3365.500000000001
 21
-2638.62477001372
 31
0.0
  0
LINE
  5
1CA
  8
0_INFO
 62
     2
 10
-3365.500000000001
 20
-2638.62477001372
 30
0.0
 11
-3378.000000000001
 21
-2638.62477001372
 31
0.0
  0
LINE
  5
1CB
  8
0_INFO
 62
     2
 10
-3378.000000000001
 20
-2638.62477001372
 30
0.0
 11
-3378.000000000001
 21
-2626.212214546702
 31
0.0
  0
LINE
  5
1CC
  8
0_INFO
 62
     2
 10
-3352.000000000001
 20
-2638.62477001372
 30
0.0
 11
-3364.500000000001
 21
-2638.62477001372
 31
0.0
  0
LINE
  5
1CD
  8
0_INFO
 62
     2
 10
-3364.500000000001
 20
-2638.62477001372
 30
0.0
 11
-3364.500000000001
 21
-2626.212214546702
 31
0.0
  0
LINE
  5
1CE
  8
0_INFO
 62
     2
 10
-3364.500000000001
 20
-2626.212214546702
 30
0.0
 11
-3352.000000000001
 21
-2626.212214546702
 31
0.0
  0
LINE
  5
1CF
  8
0_INFO
 62
     2
 10
-3352.000000000001
 20
-2626.212214546702
 30
0.0
 11
-3352.000000000001
 21
-2638.62477001372
 31
0.0
  0
LINE
  5
1D0
  8
0_INFO
 62
     2
 10
-3378.000000000001
 20
-2625.147535283666
 30
0.0
 11
-3365.500000000001
 21
-2625.147535283666
 31
0.0
  0
LINE
  5
1D1
  8
0_INFO
 62
     2
 10
-3365.500000000001
 20
-2625.147535283666
 30
0.0
 11
-3365.500000000001
 21
-2612.734979816648
 31
0.0
  0
LINE
  5
1D2
  8
0_INFO
 62
     2
 10
-3365.500000000001
 20
-2612.734979816648
 30
0.0
 11
-3378.000000000001
 21
-2612.734979816648
 31
0.0
  0
LINE
  5
1D3
  8
0_INFO
 62
     2
 10
-3378.000000000001
 20
-2612.734979816648
 30
0.0
 11
-3378.000000000001
 21
-2625.147535283666
 31
0.0
  0
LINE
  5
1D4
  8
0_INFO
 62
     2
 10
-3352.000000000001
 20
-2612.734979816648
 30
0.0
 11
-3364.500000000001
 21
-2612.734979816648
 31
0.0
  0
LINE
  5
1D5
  8
0_INFO
 62
     2
 10
-3364.500000000001
 20
-2612.734979816648
 30
0.0
 11
-3364.500000000001
 21
-2625.147535283666
 31
0.0
  0
LINE
  5
1D6
  8
0_INFO
 62
     2
 10
-3364.500000000001
 20
-2625.147535283666
 30
0.0
 11
-3352.000000000001
 21
-2625.147535283666
 31
0.0
  0
LINE
  5
1D7
  8
0_INFO
 62
     2
 10
-3352.000000000001
 20
-2625.147535283666
 30
0.0
 11
-3352.000000000001
 21
-2612.734979816648
 31
0.0
  0
LINE
  5
1D8
  8
0_INFO
 62
     2
 10
-3378.000000000001
 20
-2598.679874915184
 30
0.0
 11
-3365.500000000001
 21
-2598.679874915184
 31
0.0
  0
LINE
  5
1D9
  8
0_INFO
 62
     2
 10
-3365.500000000001
 20
-2598.679874915184
 30
0.0
 11
-3365.500000000001
 21
-2611.62477001372
 31
0.0
  0
LINE
  5
1DA
  8
0_INFO
 62
     2
 10
-3365.500000000001
 20
-2611.62477001372
 30
0.0
 11
-3378.000000000001
 21
-2611.62477001372
 31
0.0
  0
LINE
  5
1DB
  8
0_INFO
 62
     2
 10
-3378.000000000001
 20
-2611.62477001372
 30
0.0
 11
-3378.000000000001
 21
-2598.679874915184
 31
0.0
  0
LINE
  5
1DC
  8
0_INFO
 62
     2
 10
-3352.000000000001
 20
-2611.62477001372
 30
0.0
 11
-3364.500000000001
 21
-2611.62477001372
 31
0.0
  0
LINE
  5
1DD
  8
0_INFO
 62
     2
 10
-3364.500000000001
 20
-2611.62477001372
 30
0.0
 11
-3364.500000000001
 21
-2598.679874915184
 31
0.0
  0
LINE
  5
1DE
  8
0_INFO
 62
     2
 10
-3364.500000000001
 20
-2598.679874915184
 30
0.0
 11
-3352.000000000001
 21
-2598.679874915184
 31
0.0
  0
LINE
  5
1DF
  8
0_INFO
 62
     2
 10
-3352.000000000001
 20
-2598.679874915184
 30
0.0
 11
-3352.000000000001
 21
-2611.62477001372
 31
0.0
  0
LINE
  5
1E0
  8
0_INFO
 62
     2
 10
-3312.0
 20
-2652.679874915184
 30
0.0
 11
-3324.5
 21
-2652.679874915184
 31
0.0
  0
LINE
  5
1E1
  8
0_INFO
 62
     2
 10
-3324.5
 20
-2652.679874915184
 30
0.0
 11
-3324.5
 21
-2639.734979816648
 31
0.0
  0
LINE
  5
1E2
  8
0_INFO
 62
     2
 10
-3324.5
 20
-2639.734979816648
 30
0.0
 11
-3312.0
 21
-2639.734979816648
 31
0.0
  0
LINE
  5
1E3
  8
0_INFO
 62
     2
 10
-3312.0
 20
-2639.734979816648
 30
0.0
 11
-3312.0
 21
-2652.679874915184
 31
0.0
  0
LINE
  5
1E4
  8
0_INFO
 62
     2
 10
-3338.0
 20
-2639.734979816648
 30
0.0
 11
-3325.5
 21
-2639.734979816648
 31
0.0
  0
LINE
  5
1E5
  8
0_INFO
 62
     2
 10
-3325.5
 20
-2639.734979816648
 30
0.0
 11
-3325.5
 21
-2652.679874915184
 31
0.0
  0
LINE
  5
1E6
  8
0_INFO
 62
     2
 10
-3325.5
 20
-2652.679874915184
 30
0.0
 11
-3338.0
 21
-2652.679874915184
 31
0.0
  0
LINE
  5
1E7
  8
0_INFO
 62
     2
 10
-3338.0
 20
-2652.679874915184
 30
0.0
 11
-3338.0
 21
-2639.734979816648
 31
0.0
  0
LINE
  5
1E8
  8
0_INFO
 62
     2
 10
-3312.0
 20
-2626.212214546702
 30
0.0
 11
-3324.5
 21
-2626.212214546702
 31
0.0
  0
LINE
  5
1E9
  8
0_INFO
 62
     2
 10
-3324.5
 20
-2626.212214546702
 30
0.0
 11
-3324.5
 21
-2638.62477001372
 31
0.0
  0
LINE
  5
1EA
  8
0_INFO
 62
     2
 10
-3324.5
 20
-2638.62477001372
 30
0.0
 11
-3312.0
 21
-2638.62477001372
 31
0.0
  0
LINE
  5
1EB
  8
0_INFO
 62
     2
 10
-3312.0
 20
-2638.62477001372
 30
0.0
 11
-3312.0
 21
-2626.212214546702
 31
0.0
  0
LINE
  5
1EC
  8
0_INFO
 62
     2
 10
-3338.0
 20
-2638.62477001372
 30
0.0
 11
-3325.5
 21
-2638.62477001372
 31
0.0
  0
LINE
  5
1ED
  8
0_INFO
 62
     2
 10
-3325.5
 20
-2638.62477001372
 30
0.0
 11
-3325.5
 21
-2626.212214546702
 31
0.0
  0
LINE
  5
1EE
  8
0_INFO
 62
     2
 10
-3325.5
 20
-2626.212214546702
 30
0.0
 11
-3338.0
 21
-2626.212214546702
 31
0.0
  0
LINE
  5
1EF
  8
0_INFO
 62
     2
 10
-3338.0
 20
-2626.212214546702
 30
0.0
 11
-3338.0
 21
-2638.62477001372
 31
0.0
  0
LINE
  5
1F0
  8
0_INFO
 62
     2
 10
-3312.0
 20
-2625.147535283666
 30
0.0
 11
-3324.5
 21
-2625.147535283666
 31
0.0
  0
LINE
  5
1F1
  8
0_INFO
 62
     2
 10
-3324.5
 20
-2625.147535283666
 30
0.0
 11
-3324.5
 21
-2612.734979816648
 31
0.0
  0
LINE
  5
1F2
  8
0_INFO
 62
     2
 10
-3324.5
 20
-2612.734979816648
 30
0.0
 11
-3312.0
 21
-2612.734979816648
 31
0.0
  0
LINE
  5
1F3
  8
0_INFO
 62
     2
 10
-3312.0
 20
-2612.734979816648
 30
0.0
 11
-3312.0
 21
-2625.147535283666
 31
0.0
  0
LINE
  5
1F4
  8
0_INFO
 62
     2
 10
-3338.0
 20
-2612.734979816648
 30
0.0
 11
-3325.5
 21
-2612.734979816648
 31
0.0
  0
LINE
  5
1F5
  8
0_INFO
 62
     2
 10
-3325.5
 20
-2612.734979816648
 30
0.0
 11
-3325.5
 21
-2625.147535283666
 31
0.0
  0
LINE
  5
1F6
  8
0_INFO
 62
     2
 10
-3325.5
 20
-2625.147535283666
 30
0.0
 11
-3338.0
 21
-2625.147535283666
 31
0.0
  0
LINE
  5
1F7
  8
0_INFO
 62
     2
 10
-3338.0
 20
-2625.147535283666
 30
0.0
 11
-3338.0
 21
-2612.734979816648
 31
0.0
  0
LINE
  5
1F8
  8
0_INFO
 62
     2
 10
-3312.0
 20
-2598.679874915184
 30
0.0
 11
-3324.5
 21
-2598.679874915184
 31
0.0
  0
LINE
  5
1F9
  8
0_INFO
 62
     2
 10
-3324.5
 20
-2598.679874915184
 30
0.0
 11
-3324.5
 21
-2611.62477001372
 31
0.0
  0
LINE
  5
1FA
  8
0_INFO
 62
     2
 10
-3324.5
 20
-2611.62477001372
 30
0.0
 11
-3312.0
 21
-2611.62477001372
 31
0.0
  0
LINE
  5
1FB
  8
0_INFO
 62
     2
 10
-3312.0
 20
-2611.62477001372
 30
0.0
 11
-3312.0
 21
-2598.679874915184
 31
0.0
  0
LINE
  5
1FC
  8
0_INFO
 62
     2
 10
-3338.0
 20
-2611.62477001372
 30
0.0
 11
-3325.5
 21
-2611.62477001372
 31
0.0
  0
LINE
  5
1FD
  8
0_INFO
 62
     2
 10
-3325.5
 20
-2611.62477001372
 30
0.0
 11
-3325.5
 21
-2598.679874915184
 31
0.0
  0
LINE
  5
1FE
  8
0_INFO
 62
     2
 10
-3325.5
 20
-2598.679874915184
 30
0.0
 11
-3338.0
 21
-2598.679874915184
 31
0.0
  0
LINE
  5
1FF
  8
0_INFO
 62
     2
 10
-3338.0
 20
-2598.679874915184
 30
0.0
 11
-3338.0
 21
-2611.62477001372
 31
0.0
  0
LINE
  5
200
  8
0_INFO
 62
     2
 10
-3278.000000000001
 20
-2652.679874915184
 30
0.0
 11
-3265.500000000001
 21
-2652.679874915184
 31
0.0
  0
LINE
  5
201
  8
0_INFO
 62
     2
 10
-3265.500000000001
 20
-2652.679874915184
 30
0.0
 11
-3265.500000000001
 21
-2639.734979816648
 31
0.0
  0
LINE
  5
202
  8
0_INFO
 62
     2
 10
-3265.500000000001
 20
-2639.734979816648
 30
0.0
 11
-3278.000000000001
 21
-2639.734979816648
 31
0.0
  0
LINE
  5
203
  8
0_INFO
 62
     2
 10
-3278.000000000001
 20
-2639.734979816648
 30
0.0
 11
-3278.000000000001
 21
-2652.679874915184
 31
0.0
  0
LINE
  5
204
  8
0_INFO
 62
     2
 10
-3252.000000000001
 20
-2639.734979816648
 30
0.0
 11
-3264.500000000001
 21
-2639.734979816648
 31
0.0
  0
LINE
  5
205
  8
0_INFO
 62
     2
 10
-3264.500000000001
 20
-2639.734979816648
 30
0.0
 11
-3264.500000000001
 21
-2652.679874915184
 31
0.0
  0
LINE
  5
206
  8
0_INFO
 62
     2
 10
-3264.500000000001
 20
-2652.679874915184
 30
0.0
 11
-3252.000000000001
 21
-2652.679874915184
 31
0.0
  0
LINE
  5
207
  8
0_INFO
 62
     2
 10
-3252.000000000001
 20
-2652.679874915184
 30
0.0
 11
-3252.000000000001
 21
-2639.734979816648
 31
0.0
  0
LINE
  5
208
  8
0_INFO
 62
     2
 10
-3278.000000000001
 20
-2626.212214546702
 30
0.0
 11
-3265.500000000001
 21
-2626.212214546702
 31
0.0
  0
LINE
  5
209
  8
0_INFO
 62
     2
 10
-3265.500000000001
 20
-2626.212214546702
 30
0.0
 11
-3265.500000000001
 21
-2638.62477001372
 31
0.0
  0
LINE
  5
20A
  8
0_INFO
 62
     2
 10
-3265.500000000001
 20
-2638.62477001372
 30
0.0
 11
-3278.000000000001
 21
-2638.62477001372
 31
0.0
  0
LINE
  5
20B
  8
0_INFO
 62
     2
 10
-3278.000000000001
 20
-2638.62477001372
 30
0.0
 11
-3278.000000000001
 21
-2626.212214546702
 31
0.0
  0
LINE
  5
20C
  8
0_INFO
 62
     2
 10
-3252.000000000001
 20
-2638.62477001372
 30
0.0
 11
-3264.500000000001
 21
-2638.62477001372
 31
0.0
  0
LINE
  5
20D
  8
0_INFO
 62
     2
 10
-3264.500000000001
 20
-2638.62477001372
 30
0.0
 11
-3264.500000000001
 21
-2626.212214546702
 31
0.0
  0
LINE
  5
20E
  8
0_INFO
 62
     2
 10
-3264.500000000001
 20
-2626.212214546702
 30
0.0
 11
-3252.000000000001
 21
-2626.212214546702
 31
0.0
  0
LINE
  5
20F
  8
0_INFO
 62
     2
 10
-3252.000000000001
 20
-2626.212214546702
 30
0.0
 11
-3252.000000000001
 21
-2638.62477001372
 31
0.0
  0
LINE
  5
210
  8
0_INFO
 62
     2
 10
-3278.000000000001
 20
-2625.147535283666
 30
0.0
 11
-3265.500000000001
 21
-2625.147535283666
 31
0.0
  0
LINE
  5
211
  8
0_INFO
 62
     2
 10
-3265.500000000001
 20
-2625.147535283666
 30
0.0
 11
-3265.500000000001
 21
-2612.734979816648
 31
0.0
  0
LINE
  5
212
  8
0_INFO
 62
     2
 10
-3265.500000000001
 20
-2612.734979816648
 30
0.0
 11
-3278.000000000001
 21
-2612.734979816648
 31
0.0
  0
LINE
  5
213
  8
0_INFO
 62
     2
 10
-3278.000000000001
 20
-2612.734979816648
 30
0.0
 11
-3278.000000000001
 21
-2625.147535283666
 31
0.0
  0
LINE
  5
214
  8
0_INFO
 62
     2
 10
-3252.000000000001
 20
-2612.734979816648
 30
0.0
 11
-3264.500000000001
 21
-2612.734979816648
 31
0.0
  0
LINE
  5
215
  8
0_INFO
 62
     2
 10
-3264.500000000001
 20
-2612.734979816648
 30
0.0
 11
-3264.500000000001
 21
-2625.147535283666
 31
0.0
  0
LINE
  5
216
  8
0_INFO
 62
     2
 10
-3264.500000000001
 20
-2625.147535283666
 30
0.0
 11
-3252.000000000001
 21
-2625.147535283666
 31
0.0
  0
LINE
  5
217
  8
0_INFO
 62
     2
 10
-3252.000000000001
 20
-2625.147535283666
 30
0.0
 11
-3252.000000000001
 21
-2612.734979816648
 31
0.0
  0
LINE
  5
218
  8
0_INFO
 62
     2
 10
-3278.000000000001
 20
-2598.679874915184
 30
0.0
 11
-3265.500000000001
 21
-2598.679874915184
 31
0.0
  0
LINE
  5
219
  8
0_INFO
 62
     2
 10
-3265.500000000001
 20
-2598.679874915184
 30
0.0
 11
-3265.500000000001
 21
-2611.62477001372
 31
0.0
  0
LINE
  5
21A
  8
0_INFO
 62
     2
 10
-3265.500000000001
 20
-2611.62477001372
 30
0.0
 11
-3278.000000000001
 21
-2611.62477001372
 31
0.0
  0
LINE
  5
21B
  8
0_INFO
 62
     2
 10
-3278.000000000001
 20
-2611.62477001372
 30
0.0
 11
-3278.000000000001
 21
-2598.679874915184
 31
0.0
  0
LINE
  5
21C
  8
0_INFO
 62
     2
 10
-3252.000000000001
 20
-2611.62477001372
 30
0.0
 11
-3264.500000000001
 21
-2611.62477001372
 31
0.0
  0
LINE
  5
21D
  8
0_INFO
 62
     2
 10
-3264.500000000001
 20
-2611.62477001372
 30
0.0
 11
-3264.500000000001
 21
-2598.679874915184
 31
0.0
  0
LINE
  5
21E
  8
0_INFO
 62
     2
 10
-3264.500000000001
 20
-2598.679874915184
 30
0.0
 11
-3252.000000000001
 21
-2598.679874915184
 31
0.0
  0
LINE
  5
21F
  8
0_INFO
 62
     2
 10
-3252.000000000001
 20
-2598.679874915184
 30
0.0
 11
-3252.000000000001
 21
-2611.62477001372
 31
0.0
  0
LINE
  5
220
  8
0_INFO
 62
     2
 10
-3212.0
 20
-2652.679874915184
 30
0.0
 11
-3224.5
 21
-2652.679874915184
 31
0.0
  0
LINE
  5
221
  8
0_INFO
 62
     2
 10
-3224.5
 20
-2652.679874915184
 30
0.0
 11
-3224.5
 21
-2639.734979816648
 31
0.0
  0
LINE
  5
222
  8
0_INFO
 62
     2
 10
-3224.5
 20
-2639.734979816648
 30
0.0
 11
-3212.0
 21
-2639.734979816648
 31
0.0
  0
LINE
  5
223
  8
0_INFO
 62
     2
 10
-3212.0
 20
-2639.734979816648
 30
0.0
 11
-3212.0
 21
-2652.679874915184
 31
0.0
  0
LINE
  5
224
  8
0_INFO
 62
     2
 10
-3238.0
 20
-2639.734979816648
 30
0.0
 11
-3225.5
 21
-2639.734979816648
 31
0.0
  0
LINE
  5
225
  8
0_INFO
 62
     2
 10
-3225.5
 20
-2639.734979816648
 30
0.0
 11
-3225.5
 21
-2652.679874915184
 31
0.0
  0
LINE
  5
226
  8
0_INFO
 62
     2
 10
-3225.5
 20
-2652.679874915184
 30
0.0
 11
-3238.0
 21
-2652.679874915184
 31
0.0
  0
LINE
  5
227
  8
0_INFO
 62
     2
 10
-3238.0
 20
-2652.679874915184
 30
0.0
 11
-3238.0
 21
-2639.734979816648
 31
0.0
  0
LINE
  5
228
  8
0_INFO
 62
     2
 10
-3212.0
 20
-2626.212214546702
 30
0.0
 11
-3224.5
 21
-2626.212214546702
 31
0.0
  0
LINE
  5
229
  8
0_INFO
 62
     2
 10
-3224.5
 20
-2626.212214546702
 30
0.0
 11
-3224.5
 21
-2638.62477001372
 31
0.0
  0
LINE
  5
22A
  8
0_INFO
 62
     2
 10
-3224.5
 20
-2638.62477001372
 30
0.0
 11
-3212.0
 21
-2638.62477001372
 31
0.0
  0
LINE
  5
22B
  8
0_INFO
 62
     2
 10
-3212.0
 20
-2638.62477001372
 30
0.0
 11
-3212.0
 21
-2626.212214546702
 31
0.0
  0
LINE
  5
22C
  8
0_INFO
 62
     2
 10
-3238.0
 20
-2638.62477001372
 30
0.0
 11
-3225.5
 21
-2638.62477001372
 31
0.0
  0
LINE
  5
22D
  8
0_INFO
 62
     2
 10
-3225.5
 20
-2638.62477001372
 30
0.0
 11
-3225.5
 21
-2626.212214546702
 31
0.0
  0
LINE
  5
22E
  8
0_INFO
 62
     2
 10
-3225.5
 20
-2626.212214546702
 30
0.0
 11
-3238.0
 21
-2626.212214546702
 31
0.0
  0
LINE
  5
22F
  8
0_INFO
 62
     2
 10
-3238.0
 20
-2626.212214546702
 30
0.0
 11
-3238.0
 21
-2638.62477001372
 31
0.0
  0
LINE
  5
230
  8
0_INFO
 62
     2
 10
-3212.0
 20
-2625.147535283666
 30
0.0
 11
-3224.5
 21
-2625.147535283666
 31
0.0
  0
LINE
  5
231
  8
0_INFO
 62
     2
 10
-3224.5
 20
-2625.147535283666
 30
0.0
 11
-3224.5
 21
-2612.734979816648
 31
0.0
  0
LINE
  5
232
  8
0_INFO
 62
     2
 10
-3224.5
 20
-2612.734979816648
 30
0.0
 11
-3212.0
 21
-2612.734979816648
 31
0.0
  0
LINE
  5
233
  8
0_INFO
 62
     2
 10
-3212.0
 20
-2612.734979816648
 30
0.0
 11
-3212.0
 21
-2625.147535283666
 31
0.0
  0
LINE
  5
234
  8
0_INFO
 62
     2
 10
-3238.0
 20
-2612.734979816648
 30
0.0
 11
-3225.5
 21
-2612.734979816648
 31
0.0
  0
LINE
  5
235
  8
0_INFO
 62
     2
 10
-3225.5
 20
-2612.734979816648
 30
0.0
 11
-3225.5
 21
-2625.147535283666
 31
0.0
  0
LINE
  5
236
  8
0_INFO
 62
     2
 10
-3225.5
 20
-2625.147535283666
 30
0.0
 11
-3238.0
 21
-2625.147535283666
 31
0.0
  0
LINE
  5
237
  8
0_INFO
 62
     2
 10
-3238.0
 20
-2625.147535283666
 30
0.0
 11
-3238.0
 21
-2612.734979816648
 31
0.0
  0
LINE
  5
238
  8
0_INFO
 62
     2
 10
-3212.0
 20
-2598.679874915184
 30
0.0
 11
-3224.5
 21
-2598.679874915184
 31
0.0
  0
LINE
  5
239
  8
0_INFO
 62
     2
 10
-3224.5
 20
-2598.679874915184
 30
0.0
 11
-3224.5
 21
-2611.62477001372
 31
0.0
  0
LINE
  5
23A
  8
0_INFO
 62
     2
 10
-3224.5
 20
-2611.62477001372
 30
0.0
 11
-3212.0
 21
-2611.62477001372
 31
0.0
  0
LINE
  5
23B
  8
0_INFO
 62
     2
 10
-3212.0
 20
-2611.62477001372
 30
0.0
 11
-3212.0
 21
-2598.679874915184
 31
0.0
  0
LINE
  5
23C
  8
0_INFO
 62
     2
 10
-3238.0
 20
-2611.62477001372
 30
0.0
 11
-3225.5
 21
-2611.62477001372
 31
0.0
  0
LINE
  5
23D
  8
0_INFO
 62
     2
 10
-3225.5
 20
-2611.62477001372
 30
0.0
 11
-3225.5
 21
-2598.679874915184
 31
0.0
  0
LINE
  5
23E
  8
0_INFO
 62
     2
 10
-3225.5
 20
-2598.679874915184
 30
0.0
 11
-3238.0
 21
-2598.679874915184
 31
0.0
  0
LINE
  5
23F
  8
0_INFO
 62
     2
 10
-3238.0
 20
-2598.679874915184
 30
0.0
 11
-3238.0
 21
-2611.62477001372
 31
0.0
  0
TEXT
  5
240
  8
0_INFO
 62
   254
 10
-4510.363666017813
 20
-2802.429874333047
 30
0.0
 40
22.6549
  1
Pappengröße | sheet size
  7
ARIAL
1001
ACADANNOTATIVE
1000
AnnotativeData
1002
{
1070
     1
1070
     0
1002
}
  0
LINE
  5
241
  8
0_INFO
 62
   254
 10
-4141.142584404338
 20
-2805.734703202095
 30
0.0
 11
-3975.0
 21
-2805.734703202095
 31
0.0
  0
LINE
  5
242
  8
0_INFO
 62
     5
 10
-3006.805130555851
 20
-2400.679874915184
 30
0.0
 11
-3006.805130555851
 21
-2750.679874915184
 31
0.0
  0
LINE
  5
243
  8
0_INFO
 62
     5
 10
-3006.805130555851
 20
-2750.679874915184
 30
0.0
 11
-3146.805130555851
 21
-2750.679874915184
 31
0.0
  0
LINE
  5
244
  8
0_INFO
 62
     5
 10
-3146.805130555851
 20
-2750.679874915184
 30
0.0
 11
-3146.805130555851
 21
-2400.679874915184
 31
0.0
  0
LINE
  5
245
  8
0_INFO
 62
     5
 10
-3146.805130555851
 20
-2400.679874915184
 30
0.0
 11
-3006.805130555851
 21
-2400.679874915184
 31
0.0
  0
LINE
  5
246
  8
0_INFO
 62
     5
 10
-3215.0
 20
-2742.679874915184
 30
0.0
 11
-3275.0
 21
-2742.679874915184
 31
0.0
  0
LINE
  5
247
  8
0_INFO
 62
     5
 10
-3275.0
 20
-2742.679874915184
 30
0.0
 11
-3275.0
 21
-2687.256212228087
 31
0.0
  0
LINE
  5
248
  8
0_INFO
 62
     5
 10
-3275.0
 20
-2687.256212228087
 30
0.0
 11
-3273.124345677277
 21
-2686.07398112485
 31
0.0
  0
LINE
  5
249
  8
0_INFO
 62
     5
 10
-3273.124345677277
 20
-2686.07398112485
 30
0.0
 11
-3271.248733568923
 21
-2684.968022996017
 31
0.0
  0
LINE
  5
24A
  8
0_INFO
 62
     5
 10
-3271.248733568923
 20
-2684.968022996017
 30
0.0
 11
-3269.373163674938
 21
-2683.938337841585
 31
0.0
  0
LINE
  5
24B
  8
0_INFO
 62
     5
 10
-3269.373163674938
 20
-2683.938337841585
 30
0.0
 11
-3267.497635995322
 21
-2682.984925661555
 31
0.0
  0
LINE
  5
24C
  8
0_INFO
 62
     5
 10
-3267.497635995322
 20
-2682.984925661555
 30
0.0
 11
-3265.622150530075
 21
-2682.107786455928
 31
0.0
  0
LINE
  5
24D
  8
0_INFO
 62
     5
 10
-3265.622150530075
 20
-2682.107786455928
 30
0.0
 11
-3263.746707279198
 21
-2681.306920224703
 31
0.0
  0
LINE
  5
24E
  8
0_INFO
 62
     5
 10
-3263.746707279198
 20
-2681.306920224703
 30
0.0
 11
-3262.809001484148
 21
-2680.935089474492
 31
0.0
  0
LINE
  5
24F
  8
0_INFO
 62
     5
 10
-3262.809001484148
 20
-2680.935089474492
 30
0.0
 11
-3261.87130624269
 21
-2680.582326967881
 31
0.0
  0
LINE
  5
250
  8
0_INFO
 62
     5
 10
-3261.87130624269
 20
-2680.582326967881
 30
0.0
 11
-3260.933621554825
 21
-2680.248632704871
 31
0.0
  0
LINE
  5
251
  8
0_INFO
 62
     5
 10
-3260.933621554825
 20
-2680.248632704871
 30
0.0
 11
-3259.995947420552
 21
-2679.934006685461
 31
0.0
  0
LINE
  5
252
  8
0_INFO
 62
     5
 10
-3259.995947420552
 20
-2679.934006685461
 30
0.0
 11
-3259.058283839871
 21
-2679.638448909652
 31
0.0
  0
LINE
  5
253
  8
0_INFO
 62
     5
 10
-3259.058283839871
 20
-2679.638448909652
 30
0.0
 11
-3258.120630812783
 21
-2679.361959377443
 31
0.0
  0
LINE
  5
254
  8
0_INFO
 62
     5
 10
-3258.120630812783
 20
-2679.361959377443
 30
0.0
 11
-3257.182988339287
 21
-2679.104538088835
 31
0.0
  0
LINE
  5
255
  8
0_INFO
 62
     5
 10
-3257.182988339287
 20
-2679.104538088835
 30
0.0
 11
-3256.245356419383
 21
-2678.866185043828
 31
0.0
  0
LINE
  5
256
  8
0_INFO
 62
     5
 10
-3256.245356419383
 20
-2678.866185043828
 30
0.0
 11
-3255.307735053071
 21
-2678.646900242421
 31
0.0
  0
LINE
  5
257
  8
0_INFO
 62
     5
 10
-3255.307735053071
 20
-2678.646900242421
 30
0.0
 11
-3254.370124240352
 21
-2678.446683684615
 31
0.0
  0
LINE
  5
258
  8
0_INFO
 62
     5
 10
-3254.370124240352
 20
-2678.446683684615
 30
0.0
 11
-3253.432523981225
 21
-2678.265535370409
 31
0.0
  0
LINE
  5
259
  8
0_INFO
 62
     5
 10
-3253.432523981225
 20
-2678.265535370409
 30
0.0
 11
-3252.49493427569
 21
-2678.103455299805
 31
0.0
  0
LINE
  5
25A
  8
0_INFO
 62
     5
 10
-3252.49493427569
 20
-2678.103455299805
 30
0.0
 11
-3251.557355123748
 21
-2677.960443472801
 31
0.0
  0
LINE
  5
25B
  8
0_INFO
 62
     5
 10
-3251.557355123748
 20
-2677.960443472801
 30
0.0
 11
-3250.619786525398
 21
-2677.836499889397
 31
0.0
  0
LINE
  5
25C
  8
0_INFO
 62
     5
 10
-3250.619786525398
 20
-2677.836499889397
 30
0.0
 11
-3249.68222848064
 21
-2677.731624549594
 31
0.0
  0
LINE
  5
25D
  8
0_INFO
 62
     5
 10
-3249.68222848064
 20
-2677.731624549594
 30
0.0
 11
-3248.744680989475
 21
-2677.645817453391
 31
0.0
  0
LINE
  5
25E
  8
0_INFO
 62
     5
 10
-3248.744680989475
 20
-2677.645817453391
 30
0.0
 11
-3247.807144051902
 21
-2677.579078600789
 31
0.0
  0
LINE
  5
25F
  8
0_INFO
 62
     5
 10
-3247.807144051902
 20
-2677.579078600789
 30
0.0
 11
-3246.86961766792
 21
-2677.531407991787
 31
0.0
  0
LINE
  5
260
  8
0_INFO
 62
     5
 10
-3246.86961766792
 20
-2677.531407991787
 30
0.0
 11
-3245.932101837532
 21
-2677.502805626386
 31
0.0
  0
LINE
  5
261
  8
0_INFO
 62
     5
 10
-3245.932101837532
 20
-2677.502805626386
 30
0.0
 11
-3244.994596560736
 21
-2677.493271504586
 31
0.0
  0
LINE
  5
262
  8
0_INFO
 62
     5
 10
-3244.994596560736
 20
-2677.493271504586
 30
0.0
 11
-3244.057101837532
 21
-2677.502805626386
 31
0.0
  0
LINE
  5
263
  8
0_INFO
 62
     5
 10
-3244.057101837532
 20
-2677.502805626386
 30
0.0
 11
-3243.11961766792
 21
-2677.531407991787
 31
0.0
  0
LINE
  5
264
  8
0_INFO
 62
     5
 10
-3243.11961766792
 20
-2677.531407991787
 30
0.0
 11
-3242.182144051902
 21
-2677.579078600789
 31
0.0
  0
LINE
  5
265
  8
0_INFO
 62
     5
 10
-3242.182144051902
 20
-2677.579078600789
 30
0.0
 11
-3241.244680989475
 21
-2677.645817453391
 31
0.0
  0
LINE
  5
266
  8
0_INFO
 62
     5
 10
-3241.244680989475
 20
-2677.645817453391
 30
0.0
 11
-3240.30722848064
 21
-2677.731624549594
 31
0.0
  0
LINE
  5
267
  8
0_INFO
 62
     5
 10
-3240.30722848064
 20
-2677.731624549594
 30
0.0
 11
-3239.369786525398
 21
-2677.836499889397
 31
0.0
  0
LINE
  5
268
  8
0_INFO
 62
     5
 10
-3239.369786525398
 20
-2677.836499889397
 30
0.0
 11
-3238.432355123748
 21
-2677.960443472801
 31
0.0
  0
LINE
  5
269
  8
0_INFO
 62
     5
 10
-3238.432355123748
 20
-2677.960443472801
 30
0.0
 11
-3237.49493427569
 21
-2678.103455299805
 31
0.0
  0
LINE
  5
26A
  8
0_INFO
 62
     5
 10
-3237.49493427569
 20
-2678.103455299805
 30
0.0
 11
-3236.557523981225
 21
-2678.265535370409
 31
0.0
  0
LINE
  5
26B
  8
0_INFO
 62
     5
 10
-3236.557523981225
 20
-2678.265535370409
 30
0.0
 11
-3235.620124240352
 21
-2678.446683684615
 31
0.0
  0
LINE
  5
26C
  8
0_INFO
 62
     5
 10
-3235.620124240352
 20
-2678.446683684615
 30
0.0
 11
-3234.682735053071
 21
-2678.646900242421
 31
0.0
  0
LINE
  5
26D
  8
0_INFO
 62
     5
 10
-3234.682735053071
 20
-2678.646900242421
 30
0.0
 11
-3233.745356419383
 21
-2678.866185043828
 31
0.0
  0
LINE
  5
26E
  8
0_INFO
 62
     5
 10
-3233.745356419383
 20
-2678.866185043828
 30
0.0
 11
-3232.807988339287
 21
-2679.104538088835
 31
0.0
  0
LINE
  5
26F
  8
0_INFO
 62
     5
 10
-3232.807988339287
 20
-2679.104538088835
 30
0.0
 11
-3231.870630812783
 21
-2679.361959377443
 31
0.0
  0
LINE
  5
270
  8
0_INFO
 62
     5
 10
-3231.870630812783
 20
-2679.361959377443
 30
0.0
 11
-3230.933283839871
 21
-2679.638448909652
 31
0.0
  0
LINE
  5
271
  8
0_INFO
 62
     5
 10
-3230.933283839871
 20
-2679.638448909652
 30
0.0
 11
-3229.995947420552
 21
-2679.934006685461
 31
0.0
  0
LINE
  5
272
  8
0_INFO
 62
     5
 10
-3229.995947420552
 20
-2679.934006685461
 30
0.0
 11
-3229.058621554825
 21
-2680.248632704871
 31
0.0
  0
LINE
  5
273
  8
0_INFO
 62
     5
 10
-3229.058621554825
 20
-2680.248632704871
 30
0.0
 11
-3228.12130624269
 21
-2680.582326967881
 31
0.0
  0
LINE
  5
274
  8
0_INFO
 62
     5
 10
-3228.12130624269
 20
-2680.582326967881
 30
0.0
 11
-3227.184001484148
 21
-2680.935089474492
 31
0.0
  0
LINE
  5
275
  8
0_INFO
 62
     5
 10
-3227.184001484148
 20
-2680.935089474492
 30
0.0
 11
-3226.246707279198
 21
-2681.306920224703
 31
0.0
  0
LINE
  5
276
  8
0_INFO
 62
     5
 10
-3226.246707279198
 20
-2681.306920224703
 30
0.0
 11
-3224.372150530075
 21
-2682.107786455928
 31
0.0
  0
LINE
  5
277
  8
0_INFO
 62
     5
 10
-3224.372150530075
 20
-2682.107786455928
 30
0.0
 11
-3222.497635995322
 21
-2682.984925661555
 31
0.0
  0
LINE
  5
278
  8
0_INFO
 62
     5
 10
-3222.497635995322
 20
-2682.984925661555
 30
0.0
 11
-3220.623163674938
 21
-2683.938337841585
 31
0.0
  0
LINE
  5
279
  8
0_INFO
 62
     5
 10
-3220.623163674938
 20
-2683.938337841585
 30
0.0
 11
-3218.748733568923
 21
-2684.968022996017
 31
0.0
  0
LINE
  5
27A
  8
0_INFO
 62
     5
 10
-3218.748733568923
 20
-2684.968022996017
 30
0.0
 11
-3216.874345677277
 21
-2686.07398112485
 31
0.0
  0
LINE
  5
27B
  8
0_INFO
 62
     5
 10
-3216.874345677277
 20
-2686.07398112485
 30
0.0
 11
-3215.0
 21
-2687.256212228087
 31
0.0
  0
LINE
  5
27C
  8
0_INFO
 62
     5
 10
-3215.0
 20
-2687.256212228087
 30
0.0
 11
-3215.0
 21
-2742.679874915184
 31
0.0
  0
LINE
  5
27D
  8
0_INFO
 62
     5
 10
-3315.0
 20
-2742.679874915184
 30
0.0
 11
-3375.0
 21
-2742.679874915184
 31
0.0
  0
LINE
  5
27E
  8
0_INFO
 62
     5
 10
-3375.0
 20
-2742.679874915184
 30
0.0
 11
-3375.0
 21
-2687.256212228087
 31
0.0
  0
LINE
  5
27F
  8
0_INFO
 62
     5
 10
-3375.0
 20
-2687.256212228087
 30
0.0
 11
-3373.124345677276
 21
-2686.07398112485
 31
0.0
  0
LINE
  5
280
  8
0_INFO
 62
     5
 10
-3373.124345677276
 20
-2686.07398112485
 30
0.0
 11
-3371.248733568922
 21
-2684.968022996017
 31
0.0
  0
LINE
  5
281
  8
0_INFO
 62
     5
 10
-3371.248733568922
 20
-2684.968022996017
 30
0.0
 11
-3369.373163674937
 21
-2683.938337841585
 31
0.0
  0
LINE
  5
282
  8
0_INFO
 62
     5
 10
-3369.373163674937
 20
-2683.938337841585
 30
0.0
 11
-3367.497635995322
 21
-2682.984925661555
 31
0.0
  0
LINE
  5
283
  8
0_INFO
 62
     5
 10
-3367.497635995322
 20
-2682.984925661555
 30
0.0
 11
-3365.622150530075
 21
-2682.107786455928
 31
0.0
  0
LINE
  5
284
  8
0_INFO
 62
     5
 10
-3365.622150530075
 20
-2682.107786455928
 30
0.0
 11
-3363.746707279198
 21
-2681.306920224703
 31
0.0
  0
LINE
  5
285
  8
0_INFO
 62
     5
 10
-3363.746707279198
 20
-2681.306920224703
 30
0.0
 11
-3362.809001484148
 21
-2680.935089474492
 31
0.0
  0
LINE
  5
286
  8
0_INFO
 62
     5
 10
-3362.809001484148
 20
-2680.935089474492
 30
0.0
 11
-3361.87130624269
 21
-2680.582326967881
 31
0.0
  0
LINE
  5
287
  8
0_INFO
 62
     5
 10
-3361.87130624269
 20
-2680.582326967881
 30
0.0
 11
-3360.933621554825
 21
-2680.248632704871
 31
0.0
  0
LINE
  5
288
  8
0_INFO
 62
     5
 10
-3360.933621554825
 20
-2680.248632704871
 30
0.0
 11
-3359.995947420552
 21
-2679.934006685461
 31
0.0
  0
LINE
  5
289
  8
0_INFO
 62
     5
 10
-3359.995947420552
 20
-2679.934006685461
 30
0.0
 11
-3359.05828383987
 21
-2679.638448909652
 31
0.0
  0
LINE
  5
28A
  8
0_INFO
 62
     5
 10
-3359.05828383987
 20
-2679.638448909652
 30
0.0
 11
-3358.120630812782
 21
-2679.361959377443
 31
0.0
  0
LINE
  5
28B
  8
0_INFO
 62
     5
 10
-3358.120630812782
 20
-2679.361959377443
 30
0.0
 11
-3357.182988339286
 21
-2679.104538088835
 31
0.0
  0
LINE
  5
28C
  8
0_INFO
 62
     5
 10
-3357.182988339286
 20
-2679.104538088835
 30
0.0
 11
-3356.245356419382
 21
-2678.866185043828
 31
0.0
  0
LINE
  5
28D
  8
0_INFO
 62
     5
 10
-3356.245356419382
 20
-2678.866185043828
 30
0.0
 11
-3355.30773505307
 21
-2678.646900242421
 31
0.0
  0
LINE
  5
28E
  8
0_INFO
 62
     5
 10
-3355.30773505307
 20
-2678.646900242421
 30
0.0
 11
-3354.370124240351
 21
-2678.446683684615
 31
0.0
  0
LINE
  5
28F
  8
0_INFO
 62
     5
 10
-3354.370124240351
 20
-2678.446683684615
 30
0.0
 11
-3353.432523981225
 21
-2678.265535370409
 31
0.0
  0
LINE
  5
290
  8
0_INFO
 62
     5
 10
-3353.432523981225
 20
-2678.265535370409
 30
0.0
 11
-3352.49493427569
 21
-2678.103455299805
 31
0.0
  0
LINE
  5
291
  8
0_INFO
 62
     5
 10
-3352.49493427569
 20
-2678.103455299805
 30
0.0
 11
-3351.557355123748
 21
-2677.960443472801
 31
0.0
  0
LINE
  5
292
  8
0_INFO
 62
     5
 10
-3351.557355123748
 20
-2677.960443472801
 30
0.0
 11
-3350.619786525398
 21
-2677.836499889397
 31
0.0
  0
LINE
  5
293
  8
0_INFO
 62
     5
 10
-3350.619786525398
 20
-2677.836499889397
 30
0.0
 11
-3349.68222848064
 21
-2677.731624549594
 31
0.0
  0
LINE
  5
294
  8
0_INFO
 62
     5
 10
-3349.68222848064
 20
-2677.731624549594
 30
0.0
 11
-3348.744680989475
 21
-2677.645817453391
 31
0.0
  0
LINE
  5
295
  8
0_INFO
 62
     5
 10
-3348.744680989475
 20
-2677.645817453391
 30
0.0
 11
-3347.807144051902
 21
-2677.579078600789
 31
0.0
  0
LINE
  5
296
  8
0_INFO
 62
     5
 10
-3347.807144051902
 20
-2677.579078600789
 30
0.0
 11
-3346.86961766792
 21
-2677.531407991787
 31
0.0
  0
LINE
  5
297
  8
0_INFO
 62
     5
 10
-3346.86961766792
 20
-2677.531407991787
 30
0.0
 11
-3345.932101837532
 21
-2677.502805626386
 31
0.0
  0
LINE
  5
298
  8
0_INFO
 62
     5
 10
-3345.932101837532
 20
-2677.502805626386
 30
0.0
 11
-3344.994596560736
 21
-2677.493271504586
 31
0.0
  0
LINE
  5
299
  8
0_INFO
 62
     5
 10
-3344.994596560736
 20
-2677.493271504586
 30
0.0
 11
-3344.057101837532
 21
-2677.502805626386
 31
0.0
  0
LINE
  5
29A
  8
0_INFO
 62
     5
 10
-3344.057101837532
 20
-2677.502805626386
 30
0.0
 11
-3343.11961766792
 21
-2677.531407991787
 31
0.0
  0
LINE
  5
29B
  8
0_INFO
 62
     5
 10
-3343.11961766792
 20
-2677.531407991787
 30
0.0
 11
-3342.182144051902
 21
-2677.579078600789
 31
0.0
  0
LINE
  5
29C
  8
0_INFO
 62
     5
 10
-3342.182144051902
 20
-2677.579078600789
 30
0.0
 11
-3341.244680989475
 21
-2677.645817453391
 31
0.0
  0
LINE
  5
29D
  8
0_INFO
 62
     5
 10
-3341.244680989475
 20
-2677.645817453391
 30
0.0
 11
-3340.30722848064
 21
-2677.731624549594
 31
0.0
  0
LINE
  5
29E
  8
0_INFO
 62
     5
 10
-3340.30722848064
 20
-2677.731624549594
 30
0.0
 11
-3339.369786525398
 21
-2677.836499889397
 31
0.0
  0
LINE
  5
29F
  8
0_INFO
 62
     5
 10
-3339.369786525398
 20
-2677.836499889397
 30
0.0
 11
-3338.432355123748
 21
-2677.960443472801
 31
0.0
  0
LINE
  5
2A0
  8
0_INFO
 62
     5
 10
-3338.432355123748
 20
-2677.960443472801
 30
0.0
 11
-3337.49493427569
 21
-2678.103455299805
 31
0.0
  0
LINE
  5
2A1
  8
0_INFO
 62
     5
 10
-3337.49493427569
 20
-2678.103455299805
 30
0.0
 11
-3336.557523981225
 21
-2678.265535370409
 31
0.0
  0
LINE
  5
2A2
  8
0_INFO
 62
     5
 10
-3336.557523981225
 20
-2678.265535370409
 30
0.0
 11
-3335.620124240352
 21
-2678.446683684615
 31
0.0
  0
LINE
  5
2A3
  8
0_INFO
 62
     5
 10
-3335.620124240352
 20
-2678.446683684615
 30
0.0
 11
-3334.682735053071
 21
-2678.646900242421
 31
0.0
  0
LINE
  5
2A4
  8
0_INFO
 62
     5
 10
-3334.682735053071
 20
-2678.646900242421
 30
0.0
 11
-3333.745356419383
 21
-2678.866185043828
 31
0.0
  0
LINE
  5
2A5
  8
0_INFO
 62
     5
 10
-3333.745356419383
 20
-2678.866185043828
 30
0.0
 11
-3332.807988339287
 21
-2679.104538088835
 31
0.0
  0
LINE
  5
2A6
  8
0_INFO
 62
     5
 10
-3332.807988339287
 20
-2679.104538088835
 30
0.0
 11
-3331.870630812783
 21
-2679.361959377443
 31
0.0
  0
LINE
  5
2A7
  8
0_INFO
 62
     5
 10
-3331.870630812783
 20
-2679.361959377443
 30
0.0
 11
-3330.933283839871
 21
-2679.638448909652
 31
0.0
  0
LINE
  5
2A8
  8
0_INFO
 62
     5
 10
-3330.933283839871
 20
-2679.638448909652
 30
0.0
 11
-3329.995947420552
 21
-2679.934006685461
 31
0.0
  0
LINE
  5
2A9
  8
0_INFO
 62
     5
 10
-3329.995947420552
 20
-2679.934006685461
 30
0.0
 11
-3329.058621554825
 21
-2680.248632704871
 31
0.0
  0
LINE
  5
2AA
  8
0_INFO
 62
     5
 10
-3329.058621554825
 20
-2680.248632704871
 30
0.0
 11
-3328.12130624269
 21
-2680.582326967881
 31
0.0
  0
LINE
  5
2AB
  8
0_INFO
 62
     5
 10
-3328.12130624269
 20
-2680.582326967881
 30
0.0
 11
-3327.184001484148
 21
-2680.935089474492
 31
0.0
  0
LINE
  5
2AC
  8
0_INFO
 62
     5
 10
-3327.184001484148
 20
-2680.935089474492
 30
0.0
 11
-3326.246707279198
 21
-2681.306920224703
 31
0.0
  0
LINE
  5
2AD
  8
0_INFO
 62
     5
 10
-3326.246707279198
 20
-2681.306920224703
 30
0.0
 11
-3324.372150530075
 21
-2682.107786455928
 31
0.0
  0
LINE
  5
2AE
  8
0_INFO
 62
     5
 10
-3324.372150530075
 20
-2682.107786455928
 30
0.0
 11
-3322.497635995322
 21
-2682.984925661555
 31
0.0
  0
LINE
  5
2AF
  8
0_INFO
 62
     5
 10
-3322.497635995322
 20
-2682.984925661555
 30
0.0
 11
-3320.623163674938
 21
-2683.938337841585
 31
0.0
  0
LINE
  5
2B0
  8
0_INFO
 62
     5
 10
-3320.623163674938
 20
-2683.938337841585
 30
0.0
 11
-3318.748733568923
 21
-2684.968022996017
 31
0.0
  0
LINE
  5
2B1
  8
0_INFO
 62
     5
 10
-3318.748733568923
 20
-2684.968022996017
 30
0.0
 11
-3316.874345677277
 21
-2686.07398112485
 31
0.0
  0
LINE
  5
2B2
  8
0_INFO
 62
     5
 10
-3316.874345677277
 20
-2686.07398112485
 30
0.0
 11
-3315.0
 21
-2687.256212228087
 31
0.0
  0
LINE
  5
2B3
  8
0_INFO
 62
     5
 10
-3315.0
 20
-2687.256212228087
 30
0.0
 11
-3315.0
 21
-2742.679874915184
 31
0.0
  0
LINE
  5
2B4
  8
0_INFO
 62
     5
 10
-3415.0
 20
-2742.679874915184
 30
0.0
 11
-3475.0
 21
-2742.679874915184
 31
0.0
  0
LINE
  5
2B5
  8
0_INFO
 62
     5
 10
-3475.0
 20
-2742.679874915184
 30
0.0
 11
-3475.0
 21
-2687.256212228087
 31
0.0
  0
LINE
  5
2B6
  8
0_INFO
 62
     5
 10
-3475.0
 20
-2687.256212228087
 30
0.0
 11
-3473.124345677277
 21
-2686.07398112485
 31
0.0
  0
LINE
  5
2B7
  8
0_INFO
 62
     5
 10
-3473.124345677277
 20
-2686.07398112485
 30
0.0
 11
-3471.248733568923
 21
-2684.968022996017
 31
0.0
  0
LINE
  5
2B8
  8
0_INFO
 62
     5
 10
-3471.248733568923
 20
-2684.968022996017
 30
0.0
 11
-3469.373163674938
 21
-2683.938337841585
 31
0.0
  0
LINE
  5
2B9
  8
0_INFO
 62
     5
 10
-3469.373163674938
 20
-2683.938337841585
 30
0.0
 11
-3467.497635995322
 21
-2682.984925661555
 31
0.0
  0
LINE
  5
2BA
  8
0_INFO
 62
     5
 10
-3467.497635995322
 20
-2682.984925661555
 30
0.0
 11
-3465.622150530075
 21
-2682.107786455928
 31
0.0
  0
LINE
  5
2BB
  8
0_INFO
 62
     5
 10
-3465.622150530075
 20
-2682.107786455928
 30
0.0
 11
-3463.746707279198
 21
-2681.306920224703
 31
0.0
  0
LINE
  5
2BC
  8
0_INFO
 62
     5
 10
-3463.746707279198
 20
-2681.306920224703
 30
0.0
 11
-3462.809001484148
 21
-2680.935089474492
 31
0.0
  0
LINE
  5
2BD
  8
0_INFO
 62
     5
 10
-3462.809001484148
 20
-2680.935089474492
 30
0.0
 11
-3461.87130624269
 21
-2680.582326967881
 31
0.0
  0
LINE
  5
2BE
  8
0_INFO
 62
     5
 10
-3461.87130624269
 20
-2680.582326967881
 30
0.0
 11
-3460.933621554825
 21
-2680.248632704871
 31
0.0
  0
LINE
  5
2BF
  8
0_INFO
 62
     5
 10
-3460.933621554825
 20
-2680.248632704871
 30
0.0
 11
-3459.995947420552
 21
-2679.934006685461
 31
0.0
  0
LINE
  5
2C0
  8
0_INFO
 62
     5
 10
-3459.995947420552
 20
-2679.934006685461
 30
0.0
 11
-3459.058283839871
 21
-2679.638448909652
 31
0.0
  0
LINE
  5
2C1
  8
0_INFO
 62
     5
 10
-3459.058283839871
 20
-2679.638448909652
 30
0.0
 11
-3458.120630812783
 21
-2679.361959377443
 31
0.0
  0
LINE
  5
2C2
  8
0_INFO
 62
     5
 10
-3458.120630812783
 20
-2679.361959377443
 30
0.0
 11
-3457.182988339287
 21
-2679.104538088835
 31
0.0
  0
LINE
  5
2C3
  8
0_INFO
 62
     5
 10
-3457.182988339287
 20
-2679.104538088835
 30
0.0
 11
-3456.245356419383
 21
-2678.866185043828
 31
0.0
  0
LINE
  5
2C4
  8
0_INFO
 62
     5
 10
-3456.245356419383
 20
-2678.866185043828
 30
0.0
 11
-3455.307735053071
 21
-2678.646900242421
 31
0.0
  0
LINE
  5
2C5
  8
0_INFO
 62
     5
 10
-3455.307735053071
 20
-2678.646900242421
 30
0.0
 11
-3454.370124240352
 21
-2678.446683684615
 31
0.0
  0
LINE
  5
2C6
  8
0_INFO
 62
     5
 10
-3454.370124240352
 20
-2678.446683684615
 30
0.0
 11
-3453.432523981225
 21
-2678.265535370409
 31
0.0
  0
LINE
  5
2C7
  8
0_INFO
 62
     5
 10
-3453.432523981225
 20
-2678.265535370409
 30
0.0
 11
-3452.49493427569
 21
-2678.103455299805
 31
0.0
  0
LINE
  5
2C8
  8
0_INFO
 62
     5
 10
-3452.49493427569
 20
-2678.103455299805
 30
0.0
 11
-3451.557355123748
 21
-2677.960443472801
 31
0.0
  0
LINE
  5
2C9
  8
0_INFO
 62
     5
 10
-3451.557355123748
 20
-2677.960443472801
 30
0.0
 11
-3450.619786525398
 21
-2677.836499889397
 31
0.0
  0
LINE
  5
2CA
  8
0_INFO
 62
     5
 10
-3450.619786525398
 20
-2677.836499889397
 30
0.0
 11
-3449.68222848064
 21
-2677.731624549594
 31
0.0
  0
LINE
  5
2CB
  8
0_INFO
 62
     5
 10
-3449.68222848064
 20
-2677.731624549594
 30
0.0
 11
-3448.744680989475
 21
-2677.645817453391
 31
0.0
  0
LINE
  5
2CC
  8
0_INFO
 62
     5
 10
-3448.744680989475
 20
-2677.645817453391
 30
0.0
 11
-3447.807144051902
 21
-2677.579078600789
 31
0.0
  0
LINE
  5
2CD
  8
0_INFO
 62
     5
 10
-3447.807144051902
 20
-2677.579078600789
 30
0.0
 11
-3446.86961766792
 21
-2677.531407991787
 31
0.0
  0
LINE
  5
2CE
  8
0_INFO
 62
     5
 10
-3446.86961766792
 20
-2677.531407991787
 30
0.0
 11
-3445.932101837532
 21
-2677.502805626386
 31
0.0
  0
LINE
  5
2CF
  8
0_INFO
 62
     5
 10
-3445.932101837532
 20
-2677.502805626386
 30
0.0
 11
-3444.994596560736
 21
-2677.493271504586
 31
0.0
  0
LINE
  5
2D0
  8
0_INFO
 62
     5
 10
-3444.994596560736
 20
-2677.493271504586
 30
0.0
 11
-3444.057101837532
 21
-2677.502805626386
 31
0.0
  0
LINE
  5
2D1
  8
0_INFO
 62
     5
 10
-3444.057101837532
 20
-2677.502805626386
 30
0.0
 11
-3443.11961766792
 21
-2677.531407991787
 31
0.0
  0
LINE
  5
2D2
  8
0_INFO
 62
     5
 10
-3443.11961766792
 20
-2677.531407991787
 30
0.0
 11
-3442.182144051902
 21
-2677.579078600789
 31
0.0
  0
LINE
  5
2D3
  8
0_INFO
 62
     5
 10
-3442.182144051902
 20
-2677.579078600789
 30
0.0
 11
-3441.244680989475
 21
-2677.645817453391
 31
0.0
  0
LINE
  5
2D4
  8
0_INFO
 62
     5
 10
-3441.244680989475
 20
-2677.645817453391
 30
0.0
 11
-3440.30722848064
 21
-2677.731624549594
 31
0.0
  0
LINE
  5
2D5
  8
0_INFO
 62
     5
 10
-3440.30722848064
 20
-2677.731624549594
 30
0.0
 11
-3439.369786525398
 21
-2677.836499889397
 31
0.0
  0
LINE
  5
2D6
  8
0_INFO
 62
     5
 10
-3439.369786525398
 20
-2677.836499889397
 30
0.0
 11
-3438.432355123748
 21
-2677.960443472801
 31
0.0
  0
LINE
  5
2D7
  8
0_INFO
 62
     5
 10
-3438.432355123748
 20
-2677.960443472801
 30
0.0
 11
-3437.49493427569
 21
-2678.103455299805
 31
0.0
  0
LINE
  5
2D8
  8
0_INFO
 62
     5
 10
-3437.49493427569
 20
-2678.103455299805
 30
0.0
 11
-3436.557523981225
 21
-2678.265535370409
 31
0.0
  0
LINE
  5
2D9
  8
0_INFO
 62
     5
 10
-3436.557523981225
 20
-2678.265535370409
 30
0.0
 11
-3435.620124240351
 21
-2678.446683684615
 31
0.0
  0
LINE
  5
2DA
  8
0_INFO
 62
     5
 10
-3435.620124240351
 20
-2678.446683684615
 30
0.0
 11
-3434.68273505307
 21
-2678.646900242421
 31
0.0
  0
LINE
  5
2DB
  8
0_INFO
 62
     5
 10
-3434.68273505307
 20
-2678.646900242421
 30
0.0
 11
-3433.745356419382
 21
-2678.866185043828
 31
0.0
  0
LINE
  5
2DC
  8
0_INFO
 62
     5
 10
-3433.745356419382
 20
-2678.866185043828
 30
0.0
 11
-3432.807988339286
 21
-2679.104538088835
 31
0.0
  0
LINE
  5
2DD
  8
0_INFO
 62
     5
 10
-3432.807988339286
 20
-2679.104538088835
 30
0.0
 11
-3431.870630812782
 21
-2679.361959377443
 31
0.0
  0
LINE
  5
2DE
  8
0_INFO
 62
     5
 10
-3431.870630812782
 20
-2679.361959377443
 30
0.0
 11
-3430.93328383987
 21
-2679.638448909652
 31
0.0
  0
LINE
  5
2DF
  8
0_INFO
 62
     5
 10
-3430.93328383987
 20
-2679.638448909652
 30
0.0
 11
-3429.995947420552
 21
-2679.934006685461
 31
0.0
  0
LINE
  5
2E0
  8
0_INFO
 62
     5
 10
-3429.995947420552
 20
-2679.934006685461
 30
0.0
 11
-3429.058621554825
 21
-2680.248632704871
 31
0.0
  0
LINE
  5
2E1
  8
0_INFO
 62
     5
 10
-3429.058621554825
 20
-2680.248632704871
 30
0.0
 11
-3428.12130624269
 21
-2680.582326967881
 31
0.0
  0
LINE
  5
2E2
  8
0_INFO
 62
     5
 10
-3428.12130624269
 20
-2680.582326967881
 30
0.0
 11
-3427.184001484148
 21
-2680.935089474492
 31
0.0
  0
LINE
  5
2E3
  8
0_INFO
 62
     5
 10
-3427.184001484148
 20
-2680.935089474492
 30
0.0
 11
-3426.246707279198
 21
-2681.306920224703
 31
0.0
  0
LINE
  5
2E4
  8
0_INFO
 62
     5
 10
-3426.246707279198
 20
-2681.306920224703
 30
0.0
 11
-3424.372150530075
 21
-2682.107786455928
 31
0.0
  0
LINE
  5
2E5
  8
0_INFO
 62
     5
 10
-3424.372150530075
 20
-2682.107786455928
 30
0.0
 11
-3422.497635995322
 21
-2682.984925661555
 31
0.0
  0
LINE
  5
2E6
  8
0_INFO
 62
     5
 10
-3422.497635995322
 20
-2682.984925661555
 30
0.0
 11
-3420.623163674937
 21
-2683.938337841585
 31
0.0
  0
LINE
  5
2E7
  8
0_INFO
 62
     5
 10
-3420.623163674937
 20
-2683.938337841585
 30
0.0
 11
-3418.748733568922
 21
-2684.968022996017
 31
0.0
  0
LINE
  5
2E8
  8
0_INFO
 62
     5
 10
-3418.748733568922
 20
-2684.968022996017
 30
0.0
 11
-3416.874345677276
 21
-2686.07398112485
 31
0.0
  0
LINE
  5
2E9
  8
0_INFO
 62
     5
 10
-3416.874345677276
 20
-2686.07398112485
 30
0.0
 11
-3415.0
 21
-2687.256212228087
 31
0.0
  0
LINE
  5
2EA
  8
0_INFO
 62
     5
 10
-3415.0
 20
-2687.256212228087
 30
0.0
 11
-3415.0
 21
-2742.679874915184
 31
0.0
  0
LINE
  5
2EB
  8
0_INFO
 62
     5
 10
-3495.0
 20
-2742.679874915184
 30
0.0
 11
-3555.0
 21
-2742.679874915184
 31
0.0
  0
LINE
  5
2EC
  8
0_INFO
 62
     5
 10
-3555.0
 20
-2742.679874915184
 30
0.0
 11
-3555.0
 21
-2687.256212228087
 31
0.0
  0
LINE
  5
2ED
  8
0_INFO
 62
     5
 10
-3555.0
 20
-2687.256212228087
 30
0.0
 11
-3553.124345677277
 21
-2686.07398112485
 31
0.0
  0
LINE
  5
2EE
  8
0_INFO
 62
     5
 10
-3553.124345677277
 20
-2686.07398112485
 30
0.0
 11
-3551.248733568923
 21
-2684.968022996017
 31
0.0
  0
LINE
  5
2EF
  8
0_INFO
 62
     5
 10
-3551.248733568923
 20
-2684.968022996017
 30
0.0
 11
-3549.373163674938
 21
-2683.938337841585
 31
0.0
  0
LINE
  5
2F0
  8
0_INFO
 62
     5
 10
-3549.373163674938
 20
-2683.938337841585
 30
0.0
 11
-3547.497635995322
 21
-2682.984925661555
 31
0.0
  0
LINE
  5
2F1
  8
0_INFO
 62
     5
 10
-3547.497635995322
 20
-2682.984925661555
 30
0.0
 11
-3545.622150530075
 21
-2682.107786455928
 31
0.0
  0
LINE
  5
2F2
  8
0_INFO
 62
     5
 10
-3545.622150530075
 20
-2682.107786455928
 30
0.0
 11
-3543.746707279198
 21
-2681.306920224703
 31
0.0
  0
LINE
  5
2F3
  8
0_INFO
 62
     5
 10
-3543.746707279198
 20
-2681.306920224703
 30
0.0
 11
-3542.809001484147
 21
-2680.935089474492
 31
0.0
  0
LINE
  5
2F4
  8
0_INFO
 62
     5
 10
-3542.809001484147
 20
-2680.935089474492
 30
0.0
 11
-3541.87130624269
 21
-2680.582326967881
 31
0.0
  0
LINE
  5
2F5
  8
0_INFO
 62
     5
 10
-3541.87130624269
 20
-2680.582326967881
 30
0.0
 11
-3540.933621554824
 21
-2680.248632704871
 31
0.0
  0
LINE
  5
2F6
  8
0_INFO
 62
     5
 10
-3540.933621554824
 20
-2680.248632704871
 30
0.0
 11
-3539.995947420551
 21
-2679.934006685461
 31
0.0
  0
LINE
  5
2F7
  8
0_INFO
 62
     5
 10
-3539.995947420551
 20
-2679.934006685461
 30
0.0
 11
-3539.05828383987
 21
-2679.638448909652
 31
0.0
  0
LINE
  5
2F8
  8
0_INFO
 62
     5
 10
-3539.05828383987
 20
-2679.638448909652
 30
0.0
 11
-3538.120630812782
 21
-2679.361959377443
 31
0.0
  0
LINE
  5
2F9
  8
0_INFO
 62
     5
 10
-3538.120630812782
 20
-2679.361959377443
 30
0.0
 11
-3537.182988339286
 21
-2679.104538088835
 31
0.0
  0
LINE
  5
2FA
  8
0_INFO
 62
     5
 10
-3537.182988339286
 20
-2679.104538088835
 30
0.0
 11
-3536.245356419382
 21
-2678.866185043828
 31
0.0
  0
LINE
  5
2FB
  8
0_INFO
 62
     5
 10
-3536.245356419382
 20
-2678.866185043828
 30
0.0
 11
-3535.30773505307
 21
-2678.646900242421
 31
0.0
  0
LINE
  5
2FC
  8
0_INFO
 62
     5
 10
-3535.30773505307
 20
-2678.646900242421
 30
0.0
 11
-3534.370124240351
 21
-2678.446683684615
 31
0.0
  0
LINE
  5
2FD
  8
0_INFO
 62
     5
 10
-3534.370124240351
 20
-2678.446683684615
 30
0.0
 11
-3533.432523981224
 21
-2678.265535370409
 31
0.0
  0
LINE
  5
2FE
  8
0_INFO
 62
     5
 10
-3533.432523981224
 20
-2678.265535370409
 30
0.0
 11
-3532.494934275689
 21
-2678.103455299805
 31
0.0
  0
LINE
  5
2FF
  8
0_INFO
 62
     5
 10
-3532.494934275689
 20
-2678.103455299805
 30
0.0
 11
-3531.557355123747
 21
-2677.960443472801
 31
0.0
  0
LINE
  5
300
  8
0_INFO
 62
     5
 10
-3531.557355123747
 20
-2677.960443472801
 30
0.0
 11
-3530.619786525397
 21
-2677.836499889397
 31
0.0
  0
LINE
  5
301
  8
0_INFO
 62
     5
 10
-3530.619786525397
 20
-2677.836499889397
 30
0.0
 11
-3529.682228480639
 21
-2677.731624549594
 31
0.0
  0
LINE
  5
302
  8
0_INFO
 62
     5
 10
-3529.682228480639
 20
-2677.731624549594
 30
0.0
 11
-3528.744680989474
 21
-2677.645817453391
 31
0.0
  0
LINE
  5
303
  8
0_INFO
 62
     5
 10
-3528.744680989474
 20
-2677.645817453391
 30
0.0
 11
-3527.807144051901
 21
-2677.579078600789
 31
0.0
  0
LINE
  5
304
  8
0_INFO
 62
     5
 10
-3527.807144051901
 20
-2677.579078600789
 30
0.0
 11
-3526.86961766792
 21
-2677.531407991787
 31
0.0
  0
LINE
  5
305
  8
0_INFO
 62
     5
 10
-3526.86961766792
 20
-2677.531407991787
 30
0.0
 11
-3525.932101837531
 21
-2677.502805626386
 31
0.0
  0
LINE
  5
306
  8
0_INFO
 62
     5
 10
-3525.932101837531
 20
-2677.502805626386
 30
0.0
 11
-3524.994596560735
 21
-2677.493271504586
 31
0.0
  0
LINE
  5
307
  8
0_INFO
 62
     5
 10
-3524.994596560735
 20
-2677.493271504586
 30
0.0
 11
-3524.057101837531
 21
-2677.502805626386
 31
0.0
  0
LINE
  5
308
  8
0_INFO
 62
     5
 10
-3524.057101837531
 20
-2677.502805626386
 30
0.0
 11
-3523.11961766792
 21
-2677.531407991787
 31
0.0
  0
LINE
  5
309
  8
0_INFO
 62
     5
 10
-3523.11961766792
 20
-2677.531407991787
 30
0.0
 11
-3522.182144051901
 21
-2677.579078600789
 31
0.0
  0
LINE
  5
30A
  8
0_INFO
 62
     5
 10
-3522.182144051901
 20
-2677.579078600789
 30
0.0
 11
-3521.244680989474
 21
-2677.645817453391
 31
0.0
  0
LINE
  5
30B
  8
0_INFO
 62
     5
 10
-3521.244680989474
 20
-2677.645817453391
 30
0.0
 11
-3520.307228480639
 21
-2677.731624549594
 31
0.0
  0
LINE
  5
30C
  8
0_INFO
 62
     5
 10
-3520.307228480639
 20
-2677.731624549594
 30
0.0
 11
-3519.369786525397
 21
-2677.836499889397
 31
0.0
  0
LINE
  5
30D
  8
0_INFO
 62
     5
 10
-3519.369786525397
 20
-2677.836499889397
 30
0.0
 11
-3518.432355123747
 21
-2677.960443472801
 31
0.0
  0
LINE
  5
30E
  8
0_INFO
 62
     5
 10
-3518.432355123747
 20
-2677.960443472801
 30
0.0
 11
-3517.494934275689
 21
-2678.103455299805
 31
0.0
  0
LINE
  5
30F
  8
0_INFO
 62
     5
 10
-3517.494934275689
 20
-2678.103455299805
 30
0.0
 11
-3516.557523981224
 21
-2678.265535370409
 31
0.0
  0
LINE
  5
310
  8
0_INFO
 62
     5
 10
-3516.557523981224
 20
-2678.265535370409
 30
0.0
 11
-3515.620124240351
 21
-2678.446683684615
 31
0.0
  0
LINE
  5
311
  8
0_INFO
 62
     5
 10
-3515.620124240351
 20
-2678.446683684615
 30
0.0
 11
-3514.68273505307
 21
-2678.646900242421
 31
0.0
  0
LINE
  5
312
  8
0_INFO
 62
     5
 10
-3514.68273505307
 20
-2678.646900242421
 30
0.0
 11
-3513.745356419382
 21
-2678.866185043828
 31
0.0
  0
LINE
  5
313
  8
0_INFO
 62
     5
 10
-3513.745356419382
 20
-2678.866185043828
 30
0.0
 11
-3512.807988339286
 21
-2679.104538088835
 31
0.0
  0
LINE
  5
314
  8
0_INFO
 62
     5
 10
-3512.807988339286
 20
-2679.104538088835
 30
0.0
 11
-3511.870630812782
 21
-2679.361959377443
 31
0.0
  0
LINE
  5
315
  8
0_INFO
 62
     5
 10
-3511.870630812782
 20
-2679.361959377443
 30
0.0
 11
-3510.93328383987
 21
-2679.638448909652
 31
0.0
  0
LINE
  5
316
  8
0_INFO
 62
     5
 10
-3510.93328383987
 20
-2679.638448909652
 30
0.0
 11
-3509.995947420551
 21
-2679.934006685461
 31
0.0
  0
LINE
  5
317
  8
0_INFO
 62
     5
 10
-3509.995947420551
 20
-2679.934006685461
 30
0.0
 11
-3509.058621554824
 21
-2680.248632704871
 31
0.0
  0
LINE
  5
318
  8
0_INFO
 62
     5
 10
-3509.058621554824
 20
-2680.248632704871
 30
0.0
 11
-3508.12130624269
 21
-2680.582326967881
 31
0.0
  0
LINE
  5
319
  8
0_INFO
 62
     5
 10
-3508.12130624269
 20
-2680.582326967881
 30
0.0
 11
-3507.184001484147
 21
-2680.935089474492
 31
0.0
  0
LINE
  5
31A
  8
0_INFO
 62
     5
 10
-3507.184001484147
 20
-2680.935089474492
 30
0.0
 11
-3506.246707279198
 21
-2681.306920224703
 31
0.0
  0
LINE
  5
31B
  8
0_INFO
 62
     5
 10
-3506.246707279198
 20
-2681.306920224703
 30
0.0
 11
-3504.372150530075
 21
-2682.107786455928
 31
0.0
  0
LINE
  5
31C
  8
0_INFO
 62
     5
 10
-3504.372150530075
 20
-2682.107786455928
 30
0.0
 11
-3502.497635995322
 21
-2682.984925661555
 31
0.0
  0
LINE
  5
31D
  8
0_INFO
 62
     5
 10
-3502.497635995322
 20
-2682.984925661555
 30
0.0
 11
-3500.623163674938
 21
-2683.938337841585
 31
0.0
  0
LINE
  5
31E
  8
0_INFO
 62
     5
 10
-3500.623163674938
 20
-2683.938337841585
 30
0.0
 11
-3498.748733568923
 21
-2684.968022996017
 31
0.0
  0
LINE
  5
31F
  8
0_INFO
 62
     5
 10
-3498.748733568923
 20
-2684.968022996017
 30
0.0
 11
-3496.874345677277
 21
-2686.07398112485
 31
0.0
  0
LINE
  5
320
  8
0_INFO
 62
     5
 10
-3496.874345677277
 20
-2686.07398112485
 30
0.0
 11
-3495.0
 21
-2687.256212228087
 31
0.0
  0
LINE
  5
321
  8
0_INFO
 62
     5
 10
-3495.0
 20
-2687.256212228087
 30
0.0
 11
-3495.0
 21
-2742.679874915184
 31
0.0
  0
LINE
  5
322
  8
0_INFO
 62
     5
 10
-3575.0
 20
-2742.679874915184
 30
0.0
 11
-3635.0
 21
-2742.679874915184
 31
0.0
  0
LINE
  5
323
  8
0_INFO
 62
     5
 10
-3635.0
 20
-2742.679874915184
 30
0.0
 11
-3635.0
 21
-2687.256212228087
 31
0.0
  0
LINE
  5
324
  8
0_INFO
 62
     5
 10
-3635.0
 20
-2687.256212228087
 30
0.0
 11
-3633.124345677277
 21
-2686.07398112485
 31
0.0
  0
LINE
  5
325
  8
0_INFO
 62
     5
 10
-3633.124345677277
 20
-2686.07398112485
 30
0.0
 11
-3631.248733568923
 21
-2684.968022996017
 31
0.0
  0
LINE
  5
326
  8
0_INFO
 62
     5
 10
-3631.248733568923
 20
-2684.968022996017
 30
0.0
 11
-3629.373163674938
 21
-2683.938337841585
 31
0.0
  0
LINE
  5
327
  8
0_INFO
 62
     5
 10
-3629.373163674938
 20
-2683.938337841585
 30
0.0
 11
-3627.497635995322
 21
-2682.984925661555
 31
0.0
  0
LINE
  5
328
  8
0_INFO
 62
     5
 10
-3627.497635995322
 20
-2682.984925661555
 30
0.0
 11
-3625.622150530075
 21
-2682.107786455928
 31
0.0
  0
LINE
  5
329
  8
0_INFO
 62
     5
 10
-3625.622150530075
 20
-2682.107786455928
 30
0.0
 11
-3623.746707279198
 21
-2681.306920224703
 31
0.0
  0
LINE
  5
32A
  8
0_INFO
 62
     5
 10
-3623.746707279198
 20
-2681.306920224703
 30
0.0
 11
-3622.809001484147
 21
-2680.935089474492
 31
0.0
  0
LINE
  5
32B
  8
0_INFO
 62
     5
 10
-3622.809001484147
 20
-2680.935089474492
 30
0.0
 11
-3621.87130624269
 21
-2680.582326967881
 31
0.0
  0
LINE
  5
32C
  8
0_INFO
 62
     5
 10
-3621.87130624269
 20
-2680.582326967881
 30
0.0
 11
-3620.933621554824
 21
-2680.248632704871
 31
0.0
  0
LINE
  5
32D
  8
0_INFO
 62
     5
 10
-3620.933621554824
 20
-2680.248632704871
 30
0.0
 11
-3619.995947420551
 21
-2679.934006685461
 31
0.0
  0
LINE
  5
32E
  8
0_INFO
 62
     5
 10
-3619.995947420551
 20
-2679.934006685461
 30
0.0
 11
-3619.05828383987
 21
-2679.638448909652
 31
0.0
  0
LINE
  5
32F
  8
0_INFO
 62
     5
 10
-3619.05828383987
 20
-2679.638448909652
 30
0.0
 11
-3618.120630812782
 21
-2679.361959377443
 31
0.0
  0
LINE
  5
330
  8
0_INFO
 62
     5
 10
-3618.120630812782
 20
-2679.361959377443
 30
0.0
 11
-3617.182988339286
 21
-2679.104538088835
 31
0.0
  0
LINE
  5
331
  8
0_INFO
 62
     5
 10
-3617.182988339286
 20
-2679.104538088835
 30
0.0
 11
-3616.245356419382
 21
-2678.866185043828
 31
0.0
  0
LINE
  5
332
  8
0_INFO
 62
     5
 10
-3616.245356419382
 20
-2678.866185043828
 30
0.0
 11
-3615.30773505307
 21
-2678.646900242421
 31
0.0
  0
LINE
  5
333
  8
0_INFO
 62
     5
 10
-3615.30773505307
 20
-2678.646900242421
 30
0.0
 11
-3614.370124240351
 21
-2678.446683684615
 31
0.0
  0
LINE
  5
334
  8
0_INFO
 62
     5
 10
-3614.370124240351
 20
-2678.446683684615
 30
0.0
 11
-3613.432523981224
 21
-2678.265535370409
 31
0.0
  0
LINE
  5
335
  8
0_INFO
 62
     5
 10
-3613.432523981224
 20
-2678.265535370409
 30
0.0
 11
-3612.494934275689
 21
-2678.103455299805
 31
0.0
  0
LINE
  5
336
  8
0_INFO
 62
     5
 10
-3612.494934275689
 20
-2678.103455299805
 30
0.0
 11
-3611.557355123747
 21
-2677.960443472801
 31
0.0
  0
LINE
  5
337
  8
0_INFO
 62
     5
 10
-3611.557355123747
 20
-2677.960443472801
 30
0.0
 11
-3610.619786525397
 21
-2677.836499889397
 31
0.0
  0
LINE
  5
338
  8
0_INFO
 62
     5
 10
-3610.619786525397
 20
-2677.836499889397
 30
0.0
 11
-3609.682228480639
 21
-2677.731624549594
 31
0.0
  0
LINE
  5
339
  8
0_INFO
 62
     5
 10
-3609.682228480639
 20
-2677.731624549594
 30
0.0
 11
-3608.744680989474
 21
-2677.645817453391
 31
0.0
  0
LINE
  5
33A
  8
0_INFO
 62
     5
 10
-3608.744680989474
 20
-2677.645817453391
 30
0.0
 11
-3607.807144051901
 21
-2677.579078600789
 31
0.0
  0
LINE
  5
33B
  8
0_INFO
 62
     5
 10
-3607.807144051901
 20
-2677.579078600789
 30
0.0
 11
-3606.86961766792
 21
-2677.531407991787
 31
0.0
  0
LINE
  5
33C
  8
0_INFO
 62
     5
 10
-3606.86961766792
 20
-2677.531407991787
 30
0.0
 11
-3605.932101837531
 21
-2677.502805626386
 31
0.0
  0
LINE
  5
33D
  8
0_INFO
 62
     5
 10
-3605.932101837531
 20
-2677.502805626386
 30
0.0
 11
-3604.994596560735
 21
-2677.493271504586
 31
0.0
  0
LINE
  5
33E
  8
0_INFO
 62
     5
 10
-3604.994596560735
 20
-2677.493271504586
 30
0.0
 11
-3604.057101837531
 21
-2677.502805626386
 31
0.0
  0
LINE
  5
33F
  8
0_INFO
 62
     5
 10
-3604.057101837531
 20
-2677.502805626386
 30
0.0
 11
-3603.11961766792
 21
-2677.531407991787
 31
0.0
  0
LINE
  5
340
  8
0_INFO
 62
     5
 10
-3603.11961766792
 20
-2677.531407991787
 30
0.0
 11
-3602.182144051901
 21
-2677.579078600789
 31
0.0
  0
LINE
  5
341
  8
0_INFO
 62
     5
 10
-3602.182144051901
 20
-2677.579078600789
 30
0.0
 11
-3601.244680989474
 21
-2677.645817453391
 31
0.0
  0
LINE
  5
342
  8
0_INFO
 62
     5
 10
-3601.244680989474
 20
-2677.645817453391
 30
0.0
 11
-3600.307228480639
 21
-2677.731624549594
 31
0.0
  0
LINE
  5
343
  8
0_INFO
 62
     5
 10
-3600.307228480639
 20
-2677.731624549594
 30
0.0
 11
-3599.369786525397
 21
-2677.836499889397
 31
0.0
  0
LINE
  5
344
  8
0_INFO
 62
     5
 10
-3599.369786525397
 20
-2677.836499889397
 30
0.0
 11
-3598.432355123747
 21
-2677.960443472801
 31
0.0
  0
LINE
  5
345
  8
0_INFO
 62
     5
 10
-3598.432355123747
 20
-2677.960443472801
 30
0.0
 11
-3597.494934275689
 21
-2678.103455299805
 31
0.0
  0
LINE
  5
346
  8
0_INFO
 62
     5
 10
-3597.494934275689
 20
-2678.103455299805
 30
0.0
 11
-3596.557523981224
 21
-2678.265535370409
 31
0.0
  0
LINE
  5
347
  8
0_INFO
 62
     5
 10
-3596.557523981224
 20
-2678.265535370409
 30
0.0
 11
-3595.620124240351
 21
-2678.446683684615
 31
0.0
  0
LINE
  5
348
  8
0_INFO
 62
     5
 10
-3595.620124240351
 20
-2678.446683684615
 30
0.0
 11
-3594.68273505307
 21
-2678.646900242421
 31
0.0
  0
LINE
  5
349
  8
0_INFO
 62
     5
 10
-3594.68273505307
 20
-2678.646900242421
 30
0.0
 11
-3593.745356419382
 21
-2678.866185043828
 31
0.0
  0
LINE
  5
34A
  8
0_INFO
 62
     5
 10
-3593.745356419382
 20
-2678.866185043828
 30
0.0
 11
-3592.807988339286
 21
-2679.104538088835
 31
0.0
  0
LINE
  5
34B
  8
0_INFO
 62
     5
 10
-3592.807988339286
 20
-2679.104538088835
 30
0.0
 11
-3591.870630812782
 21
-2679.361959377443
 31
0.0
  0
LINE
  5
34C
  8
0_INFO
 62
     5
 10
-3591.870630812782
 20
-2679.361959377443
 30
0.0
 11
-3590.93328383987
 21
-2679.638448909652
 31
0.0
  0
LINE
  5
34D
  8
0_INFO
 62
     5
 10
-3590.93328383987
 20
-2679.638448909652
 30
0.0
 11
-3589.995947420551
 21
-2679.934006685461
 31
0.0
  0
LINE
  5
34E
  8
0_INFO
 62
     5
 10
-3589.995947420551
 20
-2679.934006685461
 30
0.0
 11
-3589.058621554824
 21
-2680.248632704871
 31
0.0
  0
LINE
  5
34F
  8
0_INFO
 62
     5
 10
-3589.058621554824
 20
-2680.248632704871
 30
0.0
 11
-3588.12130624269
 21
-2680.582326967881
 31
0.0
  0
LINE
  5
350
  8
0_INFO
 62
     5
 10
-3588.12130624269
 20
-2680.582326967881
 30
0.0
 11
-3587.184001484147
 21
-2680.935089474492
 31
0.0
  0
LINE
  5
351
  8
0_INFO
 62
     5
 10
-3587.184001484147
 20
-2680.935089474492
 30
0.0
 11
-3586.246707279198
 21
-2681.306920224703
 31
0.0
  0
LINE
  5
352
  8
0_INFO
 62
     5
 10
-3586.246707279198
 20
-2681.306920224703
 30
0.0
 11
-3584.372150530075
 21
-2682.107786455928
 31
0.0
  0
LINE
  5
353
  8
0_INFO
 62
     5
 10
-3584.372150530075
 20
-2682.107786455928
 30
0.0
 11
-3582.497635995322
 21
-2682.984925661555
 31
0.0
  0
LINE
  5
354
  8
0_INFO
 62
     5
 10
-3582.497635995322
 20
-2682.984925661555
 30
0.0
 11
-3580.623163674938
 21
-2683.938337841585
 31
0.0
  0
LINE
  5
355
  8
0_INFO
 62
     5
 10
-3580.623163674938
 20
-2683.938337841585
 30
0.0
 11
-3578.748733568923
 21
-2684.968022996017
 31
0.0
  0
LINE
  5
356
  8
0_INFO
 62
     5
 10
-3578.748733568923
 20
-2684.968022996017
 30
0.0
 11
-3576.874345677277
 21
-2686.07398112485
 31
0.0
  0
LINE
  5
357
  8
0_INFO
 62
     5
 10
-3576.874345677277
 20
-2686.07398112485
 30
0.0
 11
-3575.0
 21
-2687.256212228087
 31
0.0
  0
LINE
  5
358
  8
0_INFO
 62
     5
 10
-3575.0
 20
-2687.256212228087
 30
0.0
 11
-3575.0
 21
-2742.679874915184
 31
0.0
  0
LINE
  5
359
  8
0_INFO
 62
     5
 10
-3675.0
 20
-2742.679874915184
 30
0.0
 11
-3735.0
 21
-2742.679874915184
 31
0.0
  0
LINE
  5
35A
  8
0_INFO
 62
     5
 10
-3735.0
 20
-2742.679874915184
 30
0.0
 11
-3735.0
 21
-2687.256212228087
 31
0.0
  0
LINE
  5
35B
  8
0_INFO
 62
     5
 10
-3735.0
 20
-2687.256212228087
 30
0.0
 11
-3733.124345677277
 21
-2686.07398112485
 31
0.0
  0
LINE
  5
35C
  8
0_INFO
 62
     5
 10
-3733.124345677277
 20
-2686.07398112485
 30
0.0
 11
-3731.248733568923
 21
-2684.968022996017
 31
0.0
  0
LINE
  5
35D
  8
0_INFO
 62
     5
 10
-3731.248733568923
 20
-2684.968022996017
 30
0.0
 11
-3729.373163674938
 21
-2683.938337841585
 31
0.0
  0
LINE
  5
35E
  8
0_INFO
 62
     5
 10
-3729.373163674938
 20
-2683.938337841585
 30
0.0
 11
-3727.497635995322
 21
-2682.984925661555
 31
0.0
  0
LINE
  5
35F
  8
0_INFO
 62
     5
 10
-3727.497635995322
 20
-2682.984925661555
 30
0.0
 11
-3725.622150530075
 21
-2682.107786455928
 31
0.0
  0
LINE
  5
360
  8
0_INFO
 62
     5
 10
-3725.622150530075
 20
-2682.107786455928
 30
0.0
 11
-3723.746707279198
 21
-2681.306920224703
 31
0.0
  0
LINE
  5
361
  8
0_INFO
 62
     5
 10
-3723.746707279198
 20
-2681.306920224703
 30
0.0
 11
-3722.809001484147
 21
-2680.935089474492
 31
0.0
  0
LINE
  5
362
  8
0_INFO
 62
     5
 10
-3722.809001484147
 20
-2680.935089474492
 30
0.0
 11
-3721.87130624269
 21
-2680.582326967881
 31
0.0
  0
LINE
  5
363
  8
0_INFO
 62
     5
 10
-3721.87130624269
 20
-2680.582326967881
 30
0.0
 11
-3720.933621554824
 21
-2680.248632704871
 31
0.0
  0
LINE
  5
364
  8
0_INFO
 62
     5
 10
-3720.933621554824
 20
-2680.248632704871
 30
0.0
 11
-3719.995947420551
 21
-2679.934006685461
 31
0.0
  0
LINE
  5
365
  8
0_INFO
 62
     5
 10
-3719.995947420551
 20
-2679.934006685461
 30
0.0
 11
-3719.05828383987
 21
-2679.638448909652
 31
0.0
  0
LINE
  5
366
  8
0_INFO
 62
     5
 10
-3719.05828383987
 20
-2679.638448909652
 30
0.0
 11
-3718.120630812782
 21
-2679.361959377443
 31
0.0
  0
LINE
  5
367
  8
0_INFO
 62
     5
 10
-3718.120630812782
 20
-2679.361959377443
 30
0.0
 11
-3717.182988339286
 21
-2679.104538088835
 31
0.0
  0
LINE
  5
368
  8
0_INFO
 62
     5
 10
-3717.182988339286
 20
-2679.104538088835
 30
0.0
 11
-3716.245356419382
 21
-2678.866185043828
 31
0.0
  0
LINE
  5
369
  8
0_INFO
 62
     5
 10
-3716.245356419382
 20
-2678.866185043828
 30
0.0
 11
-3715.30773505307
 21
-2678.646900242421
 31
0.0
  0
LINE
  5
36A
  8
0_INFO
 62
     5
 10
-3715.30773505307
 20
-2678.646900242421
 30
0.0
 11
-3714.370124240351
 21
-2678.446683684615
 31
0.0
  0
LINE
  5
36B
  8
0_INFO
 62
     5
 10
-3714.370124240351
 20
-2678.446683684615
 30
0.0
 11
-3713.432523981224
 21
-2678.265535370409
 31
0.0
  0
LINE
  5
36C
  8
0_INFO
 62
     5
 10
-3713.432523981224
 20
-2678.265535370409
 30
0.0
 11
-3712.494934275689
 21
-2678.103455299805
 31
0.0
  0
LINE
  5
36D
  8
0_INFO
 62
     5
 10
-3712.494934275689
 20
-2678.103455299805
 30
0.0
 11
-3711.557355123747
 21
-2677.960443472801
 31
0.0
  0
LINE
  5
36E
  8
0_INFO
 62
     5
 10
-3711.557355123747
 20
-2677.960443472801
 30
0.0
 11
-3710.619786525397
 21
-2677.836499889397
 31
0.0
  0
LINE
  5
36F
  8
0_INFO
 62
     5
 10
-3710.619786525397
 20
-2677.836499889397
 30
0.0
 11
-3709.682228480639
 21
-2677.731624549594
 31
0.0
  0
LINE
  5
370
  8
0_INFO
 62
     5
 10
-3709.682228480639
 20
-2677.731624549594
 30
0.0
 11
-3708.744680989474
 21
-2677.645817453391
 31
0.0
  0
LINE
  5
371
  8
0_INFO
 62
     5
 10
-3708.744680989474
 20
-2677.645817453391
 30
0.0
 11
-3707.807144051901
 21
-2677.579078600789
 31
0.0
  0
LINE
  5
372
  8
0_INFO
 62
     5
 10
-3707.807144051901
 20
-2677.579078600789
 30
0.0
 11
-3706.86961766792
 21
-2677.531407991787
 31
0.0
  0
LINE
  5
373
  8
0_INFO
 62
     5
 10
-3706.86961766792
 20
-2677.531407991787
 30
0.0
 11
-3705.932101837531
 21
-2677.502805626386
 31
0.0
  0
LINE
  5
374
  8
0_INFO
 62
     5
 10
-3705.932101837531
 20
-2677.502805626386
 30
0.0
 11
-3704.994596560735
 21
-2677.493271504586
 31
0.0
  0
LINE
  5
375
  8
0_INFO
 62
     5
 10
-3704.994596560735
 20
-2677.493271504586
 30
0.0
 11
-3704.057101837531
 21
-2677.502805626386
 31
0.0
  0
LINE
  5
376
  8
0_INFO
 62
     5
 10
-3704.057101837531
 20
-2677.502805626386
 30
0.0
 11
-3703.11961766792
 21
-2677.531407991787
 31
0.0
  0
LINE
  5
377
  8
0_INFO
 62
     5
 10
-3703.11961766792
 20
-2677.531407991787
 30
0.0
 11
-3702.182144051901
 21
-2677.579078600789
 31
0.0
  0
LINE
  5
378
  8
0_INFO
 62
     5
 10
-3702.182144051901
 20
-2677.579078600789
 30
0.0
 11
-3701.244680989474
 21
-2677.645817453391
 31
0.0
  0
LINE
  5
379
  8
0_INFO
 62
     5
 10
-3701.244680989474
 20
-2677.645817453391
 30
0.0
 11
-3700.307228480639
 21
-2677.731624549594
 31
0.0
  0
LINE
  5
37A
  8
0_INFO
 62
     5
 10
-3700.307228480639
 20
-2677.731624549594
 30
0.0
 11
-3699.369786525397
 21
-2677.836499889397
 31
0.0
  0
LINE
  5
37B
  8
0_INFO
 62
     5
 10
-3699.369786525397
 20
-2677.836499889397
 30
0.0
 11
-3698.432355123747
 21
-2677.960443472801
 31
0.0
  0
LINE
  5
37C
  8
0_INFO
 62
     5
 10
-3698.432355123747
 20
-2677.960443472801
 30
0.0
 11
-3697.494934275689
 21
-2678.103455299805
 31
0.0
  0
LINE
  5
37D
  8
0_INFO
 62
     5
 10
-3697.494934275689
 20
-2678.103455299805
 30
0.0
 11
-3696.557523981224
 21
-2678.265535370409
 31
0.0
  0
LINE
  5
37E
  8
0_INFO
 62
     5
 10
-3696.557523981224
 20
-2678.265535370409
 30
0.0
 11
-3695.620124240351
 21
-2678.446683684615
 31
0.0
  0
LINE
  5
37F
  8
0_INFO
 62
     5
 10
-3695.620124240351
 20
-2678.446683684615
 30
0.0
 11
-3694.68273505307
 21
-2678.646900242421
 31
0.0
  0
LINE
  5
380
  8
0_INFO
 62
     5
 10
-3694.68273505307
 20
-2678.646900242421
 30
0.0
 11
-3693.745356419382
 21
-2678.866185043828
 31
0.0
  0
LINE
  5
381
  8
0_INFO
 62
     5
 10
-3693.745356419382
 20
-2678.866185043828
 30
0.0
 11
-3692.807988339286
 21
-2679.104538088835
 31
0.0
  0
LINE
  5
382
  8
0_INFO
 62
     5
 10
-3692.807988339286
 20
-2679.104538088835
 30
0.0
 11
-3691.870630812782
 21
-2679.361959377443
 31
0.0
  0
LINE
  5
383
  8
0_INFO
 62
     5
 10
-3691.870630812782
 20
-2679.361959377443
 30
0.0
 11
-3690.93328383987
 21
-2679.638448909652
 31
0.0
  0
LINE
  5
384
  8
0_INFO
 62
     5
 10
-3690.93328383987
 20
-2679.638448909652
 30
0.0
 11
-3689.995947420551
 21
-2679.934006685461
 31
0.0
  0
LINE
  5
385
  8
0_INFO
 62
     5
 10
-3689.995947420551
 20
-2679.934006685461
 30
0.0
 11
-3689.058621554824
 21
-2680.248632704871
 31
0.0
  0
LINE
  5
386
  8
0_INFO
 62
     5
 10
-3689.058621554824
 20
-2680.248632704871
 30
0.0
 11
-3688.12130624269
 21
-2680.582326967881
 31
0.0
  0
LINE
  5
387
  8
0_INFO
 62
     5
 10
-3688.12130624269
 20
-2680.582326967881
 30
0.0
 11
-3687.184001484147
 21
-2680.935089474492
 31
0.0
  0
LINE
  5
388
  8
0_INFO
 62
     5
 10
-3687.184001484147
 20
-2680.935089474492
 30
0.0
 11
-3686.246707279198
 21
-2681.306920224703
 31
0.0
  0
LINE
  5
389
  8
0_INFO
 62
     5
 10
-3686.246707279198
 20
-2681.306920224703
 30
0.0
 11
-3684.372150530075
 21
-2682.107786455928
 31
0.0
  0
LINE
  5
38A
  8
0_INFO
 62
     5
 10
-3684.372150530075
 20
-2682.107786455928
 30
0.0
 11
-3682.497635995322
 21
-2682.984925661555
 31
0.0
  0
LINE
  5
38B
  8
0_INFO
 62
     5
 10
-3682.497635995322
 20
-2682.984925661555
 30
0.0
 11
-3680.623163674938
 21
-2683.938337841585
 31
0.0
  0
LINE
  5
38C
  8
0_INFO
 62
     5
 10
-3680.623163674938
 20
-2683.938337841585
 30
0.0
 11
-3678.748733568923
 21
-2684.968022996017
 31
0.0
  0
LINE
  5
38D
  8
0_INFO
 62
     5
 10
-3678.748733568923
 20
-2684.968022996017
 30
0.0
 11
-3676.874345677277
 21
-2686.07398112485
 31
0.0
  0
LINE
  5
38E
  8
0_INFO
 62
     5
 10
-3676.874345677277
 20
-2686.07398112485
 30
0.0
 11
-3675.0
 21
-2687.256212228087
 31
0.0
  0
LINE
  5
38F
  8
0_INFO
 62
     5
 10
-3675.0
 20
-2687.256212228087
 30
0.0
 11
-3675.0
 21
-2742.679874915184
 31
0.0
  0
TEXT
  5
390
  8
0_INFO
 62
    30
 10
-4532.777805688897
 20
-2645.950926688331
 30
0.0
 40
22.6549
  1
Tiefes Rastern | deep raster
  7
ARIAL
1001
ACADANNOTATIVE
1000
AnnotativeData
1002
{
1070
     1
1070
     0
1002
}
  0
LINE
  5
391
  8
0_INFO
 62
    30
 10
-4141.142584404338
 20
-2649.255755557379
 30
0.0
 11
-3840.0
 21
-2649.255755557379
 31
0.0
  0
TEXT
  5
392
  8
0_INFO
 62
     4
 10
-4573.993279683013
 20
-2543.300873991871
 30
0.0
 40
22.6549
  1
Leichtes Rastern | slight raster
  7
ARIAL
1001
ACADANNOTATIVE
1000
AnnotativeData
1002
{
1070
     1
1070
     0
1002
}
  0
LINE
  5
393
  8
0_INFO
 62
     4
 10
-4141.142584404338
 20
-2546.605702860919
 30
0.0
 11
-3840.0
 21
-2546.605702860919
 31
0.0
  0
LINE
  5
394
  8
0_INFO
 62
     5
 10
-3875.0
 20
-2778.874744359333
 30
0.0
 11
-3175.0
 21
-2778.874744359333
 31
0.0
  0
LINE
  5
395
  8
0_INFO
 62
     5
 10
-3175.0
 20
-2778.874744359333
 30
0.0
 11
-3175.0
 21
-2918.874744359333
 31
0.0
  0
LINE
  5
396
  8
0_INFO
 62
     5
 10
-3175.0
 20
-2918.874744359333
 30
0.0
 11
-3875.0
 21
-2918.874744359333
 31
0.0
  0
LINE
  5
397
  8
0_INFO
 62
     5
 10
-3875.0
 20
-2918.874744359333
 30
0.0
 11
-3875.0
 21
-2778.874744359333
 31
0.0
  0
LINE
  5
398
  8
0_INFO
 62
     5
 10
-3775.0
 20
-2742.679874915184
 30
0.0
 11
-3835.0
 21
-2742.679874915184
 31
0.0
  0
LINE
  5
399
  8
0_INFO
 62
     5
 10
-3835.0
 20
-2742.679874915184
 30
0.0
 11
-3835.0
 21
-2687.256212228087
 31
0.0
  0
LINE
  5
39A
  8
0_INFO
 62
     5
 10
-3835.0
 20
-2687.256212228087
 30
0.0
 11
-3833.124345677277
 21
-2686.07398112485
 31
0.0
  0
LINE
  5
39B
  8
0_INFO
 62
     5
 10
-3833.124345677277
 20
-2686.07398112485
 30
0.0
 11
-3831.248733568923
 21
-2684.968022996017
 31
0.0
  0
LINE
  5
39C
  8
0_INFO
 62
     5
 10
-3831.248733568923
 20
-2684.968022996017
 30
0.0
 11
-3829.373163674938
 21
-2683.938337841585
 31
0.0
  0
LINE
  5
39D
  8
0_INFO
 62
     5
 10
-3829.373163674938
 20
-2683.938337841585
 30
0.0
 11
-3827.497635995322
 21
-2682.984925661555
 31
0.0
  0
LINE
  5
39E
  8
0_INFO
 62
     5
 10
-3827.497635995322
 20
-2682.984925661555
 30
0.0
 11
-3825.622150530075
 21
-2682.107786455928
 31
0.0
  0
LINE
  5
39F
  8
0_INFO
 62
     5
 10
-3825.622150530075
 20
-2682.107786455928
 30
0.0
 11
-3823.746707279198
 21
-2681.306920224703
 31
0.0
  0
LINE
  5
3A0
  8
0_INFO
 62
     5
 10
-3823.746707279198
 20
-2681.306920224703
 30
0.0
 11
-3822.809001484147
 21
-2680.935089474492
 31
0.0
  0
LINE
  5
3A1
  8
0_INFO
 62
     5
 10
-3822.809001484147
 20
-2680.935089474492
 30
0.0
 11
-3821.87130624269
 21
-2680.582326967881
 31
0.0
  0
LINE
  5
3A2
  8
0_INFO
 62
     5
 10
-3821.87130624269
 20
-2680.582326967881
 30
0.0
 11
-3820.933621554824
 21
-2680.248632704871
 31
0.0
  0
LINE
  5
3A3
  8
0_INFO
 62
     5
 10
-3820.933621554824
 20
-2680.248632704871
 30
0.0
 11
-3819.995947420551
 21
-2679.934006685461
 31
0.0
  0
LINE
  5
3A4
  8
0_INFO
 62
     5
 10
-3819.995947420551
 20
-2679.934006685461
 30
0.0
 11
-3819.05828383987
 21
-2679.638448909652
 31
0.0
  0
LINE
  5
3A5
  8
0_INFO
 62
     5
 10
-3819.05828383987
 20
-2679.638448909652
 30
0.0
 11
-3818.120630812782
 21
-2679.361959377443
 31
0.0
  0
LINE
  5
3A6
  8
0_INFO
 62
     5
 10
-3818.120630812782
 20
-2679.361959377443
 30
0.0
 11
-3817.182988339286
 21
-2679.104538088835
 31
0.0
  0
LINE
  5
3A7
  8
0_INFO
 62
     5
 10
-3817.182988339286
 20
-2679.104538088835
 30
0.0
 11
-3816.245356419382
 21
-2678.866185043828
 31
0.0
  0
LINE
  5
3A8
  8
0_INFO
 62
     5
 10
-3816.245356419382
 20
-2678.866185043828
 30
0.0
 11
-3815.30773505307
 21
-2678.646900242421
 31
0.0
  0
LINE
  5
3A9
  8
0_INFO
 62
     5
 10
-3815.30773505307
 20
-2678.646900242421
 30
0.0
 11
-3814.370124240351
 21
-2678.446683684615
 31
0.0
  0
LINE
  5
3AA
  8
0_INFO
 62
     5
 10
-3814.370124240351
 20
-2678.446683684615
 30
0.0
 11
-3813.432523981224
 21
-2678.265535370409
 31
0.0
  0
LINE
  5
3AB
  8
0_INFO
 62
     5
 10
-3813.432523981224
 20
-2678.265535370409
 30
0.0
 11
-3812.494934275689
 21
-2678.103455299805
 31
0.0
  0
LINE
  5
3AC
  8
0_INFO
 62
     5
 10
-3812.494934275689
 20
-2678.103455299805
 30
0.0
 11
-3811.557355123747
 21
-2677.960443472801
 31
0.0
  0
LINE
  5
3AD
  8
0_INFO
 62
     5
 10
-3811.557355123747
 20
-2677.960443472801
 30
0.0
 11
-3810.619786525397
 21
-2677.836499889397
 31
0.0
  0
LINE
  5
3AE
  8
0_INFO
 62
     5
 10
-3810.619786525397
 20
-2677.836499889397
 30
0.0
 11
-3809.682228480639
 21
-2677.731624549594
 31
0.0
  0
LINE
  5
3AF
  8
0_INFO
 62
     5
 10
-3809.682228480639
 20
-2677.731624549594
 30
0.0
 11
-3808.744680989474
 21
-2677.645817453391
 31
0.0
  0
LINE
  5
3B0
  8
0_INFO
 62
     5
 10
-3808.744680989474
 20
-2677.645817453391
 30
0.0
 11
-3807.807144051901
 21
-2677.579078600789
 31
0.0
  0
LINE
  5
3B1
  8
0_INFO
 62
     5
 10
-3807.807144051901
 20
-2677.579078600789
 30
0.0
 11
-3806.86961766792
 21
-2677.531407991787
 31
0.0
  0
LINE
  5
3B2
  8
0_INFO
 62
     5
 10
-3806.86961766792
 20
-2677.531407991787
 30
0.0
 11
-3805.932101837531
 21
-2677.502805626386
 31
0.0
  0
LINE
  5
3B3
  8
0_INFO
 62
     5
 10
-3805.932101837531
 20
-2677.502805626386
 30
0.0
 11
-3804.994596560735
 21
-2677.493271504586
 31
0.0
  0
LINE
  5
3B4
  8
0_INFO
 62
     5
 10
-3804.994596560735
 20
-2677.493271504586
 30
0.0
 11
-3804.057101837531
 21
-2677.502805626386
 31
0.0
  0
LINE
  5
3B5
  8
0_INFO
 62
     5
 10
-3804.057101837531
 20
-2677.502805626386
 30
0.0
 11
-3803.11961766792
 21
-2677.531407991787
 31
0.0
  0
LINE
  5
3B6
  8
0_INFO
 62
     5
 10
-3803.11961766792
 20
-2677.531407991787
 30
0.0
 11
-3802.182144051901
 21
-2677.579078600789
 31
0.0
  0
LINE
  5
3B7
  8
0_INFO
 62
     5
 10
-3802.182144051901
 20
-2677.579078600789
 30
0.0
 11
-3801.244680989474
 21
-2677.645817453391
 31
0.0
  0
LINE
  5
3B8
  8
0_INFO
 62
     5
 10
-3801.244680989474
 20
-2677.645817453391
 30
0.0
 11
-3800.307228480639
 21
-2677.731624549594
 31
0.0
  0
LINE
  5
3B9
  8
0_INFO
 62
     5
 10
-3800.307228480639
 20
-2677.731624549594
 30
0.0
 11
-3799.369786525397
 21
-2677.836499889397
 31
0.0
  0
LINE
  5
3BA
  8
0_INFO
 62
     5
 10
-3799.369786525397
 20
-2677.836499889397
 30
0.0
 11
-3798.432355123747
 21
-2677.960443472801
 31
0.0
  0
LINE
  5
3BB
  8
0_INFO
 62
     5
 10
-3798.432355123747
 20
-2677.960443472801
 30
0.0
 11
-3797.494934275689
 21
-2678.103455299805
 31
0.0
  0
LINE
  5
3BC
  8
0_INFO
 62
     5
 10
-3797.494934275689
 20
-2678.103455299805
 30
0.0
 11
-3796.557523981224
 21
-2678.265535370409
 31
0.0
  0
LINE
  5
3BD
  8
0_INFO
 62
     5
 10
-3796.557523981224
 20
-2678.265535370409
 30
0.0
 11
-3795.620124240351
 21
-2678.446683684615
 31
0.0
  0
LINE
  5
3BE
  8
0_INFO
 62
     5
 10
-3795.620124240351
 20
-2678.446683684615
 30
0.0
 11
-3794.68273505307
 21
-2678.646900242421
 31
0.0
  0
LINE
  5
3BF
  8
0_INFO
 62
     5
 10
-3794.68273505307
 20
-2678.646900242421
 30
0.0
 11
-3793.745356419382
 21
-2678.866185043828
 31
0.0
  0
LINE
  5
3C0
  8
0_INFO
 62
     5
 10
-3793.745356419382
 20
-2678.866185043828
 30
0.0
 11
-3792.807988339286
 21
-2679.104538088835
 31
0.0
  0
LINE
  5
3C1
  8
0_INFO
 62
     5
 10
-3792.807988339286
 20
-2679.104538088835
 30
0.0
 11
-3791.870630812782
 21
-2679.361959377443
 31
0.0
  0
LINE
  5
3C2
  8
0_INFO
 62
     5
 10
-3791.870630812782
 20
-2679.361959377443
 30
0.0
 11
-3790.93328383987
 21
-2679.638448909652
 31
0.0
  0
LINE
  5
3C3
  8
0_INFO
 62
     5
 10
-3790.93328383987
 20
-2679.638448909652
 30
0.0
 11
-3789.995947420551
 21
-2679.934006685461
 31
0.0
  0
LINE
  5
3C4
  8
0_INFO
 62
     5
 10
-3789.995947420551
 20
-2679.934006685461
 30
0.0
 11
-3789.058621554824
 21
-2680.248632704871
 31
0.0
  0
LINE
  5
3C5
  8
0_INFO
 62
     5
 10
-3789.058621554824
 20
-2680.248632704871
 30
0.0
 11
-3788.12130624269
 21
-2680.582326967881
 31
0.0
  0
LINE
  5
3C6
  8
0_INFO
 62
     5
 10
-3788.12130624269
 20
-2680.582326967881
 30
0.0
 11
-3787.184001484147
 21
-2680.935089474492
 31
0.0
  0
LINE
  5
3C7
  8
0_INFO
 62
     5
 10
-3787.184001484147
 20
-2680.935089474492
 30
0.0
 11
-3786.246707279198
 21
-2681.306920224703
 31
0.0
  0
LINE
  5
3C8
  8
0_INFO
 62
     5
 10
-3786.246707279198
 20
-2681.306920224703
 30
0.0
 11
-3784.372150530075
 21
-2682.107786455928
 31
0.0
  0
LINE
  5
3C9
  8
0_INFO
 62
     5
 10
-3784.372150530075
 20
-2682.107786455928
 30
0.0
 11
-3782.497635995322
 21
-2682.984925661555
 31
0.0
  0
LINE
  5
3CA
  8
0_INFO
 62
     5
 10
-3782.497635995322
 20
-2682.984925661555
 30
0.0
 11
-3780.623163674938
 21
-2683.938337841585
 31
0.0
  0
LINE
  5
3CB
  8
0_INFO
 62
     5
 10
-3780.623163674938
 20
-2683.938337841585
 30
0.0
 11
-3778.748733568923
 21
-2684.968022996017
 31
0.0
  0
LINE
  5
3CC
  8
0_INFO
 62
     5
 10
-3778.748733568923
 20
-2684.968022996017
 30
0.0
 11
-3776.874345677277
 21
-2686.07398112485
 31
0.0
  0
LINE
  5
3CD
  8
0_INFO
 62
     5
 10
-3776.874345677277
 20
-2686.07398112485
 30
0.0
 11
-3775.0
 21
-2687.256212228087
 31
0.0
  0
LINE
  5
3CE
  8
0_INFO
 62
     5
 10
-3775.0
 20
-2687.256212228087
 30
0.0
 11
-3775.0
 21
-2742.679874915184
 31
0.0
  0
LINE
  5
3CF
  8
0_INFO
 62
     1
 10
-3206.0
 20
-2551.679874915185
 30
0.0
 11
-3206.0
 21
-2553.679874915185
 31
0.0
  0
LINE
  5
3D0
  8
0_INFO
 62
     1
 10
-3206.0
 20
-2553.679874915185
 30
0.0
 11
-3284.0
 21
-2553.679874915184
 31
0.0
  0
LINE
  5
3D1
  8
0_INFO
 62
     1
 10
-3284.0
 20
-2553.679874915184
 30
0.0
 11
-3284.0
 21
-2551.679874915184
 31
0.0
  0
LINE
  5
3D2
  8
0_INFO
 62
     1
 10
-3284.0
 20
-2551.679874915184
 30
0.0
 11
-3206.0
 21
-2551.679874915185
 31
0.0
  0
LINE
  5
3D3
  8
0_INFO
 62
     2
 10
-3212.0
 20
-2549.679874915184
 30
0.0
 11
-3224.5
 21
-2549.679874915184
 31
0.0
  0
LINE
  5
3D4
  8
0_INFO
 62
     2
 10
-3224.5
 20
-2549.679874915184
 30
0.0
 11
-3224.5
 21
-2538.679874915184
 31
0.0
  0
LINE
  5
3D5
  8
0_INFO
 62
     2
 10
-3224.5
 20
-2538.679874915184
 30
0.0
 11
-3212.0
 21
-2538.679874915184
 31
0.0
  0
LINE
  5
3D6
  8
0_INFO
 62
     2
 10
-3212.0
 20
-2538.679874915184
 30
0.0
 11
-3212.0
 21
-2549.679874915184
 31
0.0
  0
LINE
  5
3D7
  8
0_INFO
 62
     2
 10
-3238.0
 20
-2538.679874915184
 30
0.0
 11
-3225.5
 21
-2538.679874915184
 31
0.0
  0
LINE
  5
3D8
  8
0_INFO
 62
     2
 10
-3225.5
 20
-2538.679874915184
 30
0.0
 11
-3225.5
 21
-2549.679874915184
 31
0.0
  0
LINE
  5
3D9
  8
0_INFO
 62
     2
 10
-3225.5
 20
-2549.679874915184
 30
0.0
 11
-3238.0
 21
-2549.679874915184
 31
0.0
  0
LINE
  5
3DA
  8
0_INFO
 62
     2
 10
-3238.0
 20
-2549.679874915184
 30
0.0
 11
-3238.0
 21
-2538.679874915184
 31
0.0
  0
LINE
  5
3DB
  8
0_INFO
 62
     2
 10
-3212.0
 20
-2527.179874915184
 30
0.0
 11
-3224.5
 21
-2527.179874915184
 31
0.0
  0
LINE
  5
3DC
  8
0_INFO
 62
     2
 10
-3224.5
 20
-2527.179874915184
 30
0.0
 11
-3224.5
 21
-2537.679874915184
 31
0.0
  0
LINE
  5
3DD
  8
0_INFO
 62
     2
 10
-3224.5
 20
-2537.679874915184
 30
0.0
 11
-3212.0
 21
-2537.679874915184
 31
0.0
  0
LINE
  5
3DE
  8
0_INFO
 62
     2
 10
-3212.0
 20
-2537.679874915184
 30
0.0
 11
-3212.0
 21
-2527.179874915184
 31
0.0
  0
LINE
  5
3DF
  8
0_INFO
 62
     2
 10
-3238.0
 20
-2537.679874915184
 30
0.0
 11
-3225.5
 21
-2537.679874915184
 31
0.0
  0
LINE
  5
3E0
  8
0_INFO
 62
     2
 10
-3225.5
 20
-2537.679874915184
 30
0.0
 11
-3225.5
 21
-2527.179874915184
 31
0.0
  0
LINE
  5
3E1
  8
0_INFO
 62
     2
 10
-3225.5
 20
-2527.179874915184
 30
0.0
 11
-3238.0
 21
-2527.179874915184
 31
0.0
  0
LINE
  5
3E2
  8
0_INFO
 62
     2
 10
-3238.0
 20
-2527.179874915184
 30
0.0
 11
-3238.0
 21
-2537.679874915184
 31
0.0
  0
LINE
  5
3E3
  8
0_INFO
 62
     2
 10
-3212.0
 20
-2526.179874915184
 30
0.0
 11
-3224.5
 21
-2526.179874915184
 31
0.0
  0
LINE
  5
3E4
  8
0_INFO
 62
     2
 10
-3224.5
 20
-2526.179874915184
 30
0.0
 11
-3224.5
 21
-2515.679874915184
 31
0.0
  0
LINE
  5
3E5
  8
0_INFO
 62
     2
 10
-3224.5
 20
-2515.679874915184
 30
0.0
 11
-3212.0
 21
-2515.679874915184
 31
0.0
  0
LINE
  5
3E6
  8
0_INFO
 62
     2
 10
-3212.0
 20
-2515.679874915184
 30
0.0
 11
-3212.0
 21
-2526.179874915184
 31
0.0
  0
LINE
  5
3E7
  8
0_INFO
 62
     2
 10
-3238.0
 20
-2515.679874915184
 30
0.0
 11
-3225.5
 21
-2515.679874915184
 31
0.0
  0
LINE
  5
3E8
  8
0_INFO
 62
     2
 10
-3225.5
 20
-2515.679874915184
 30
0.0
 11
-3225.5
 21
-2526.179874915184
 31
0.0
  0
LINE
  5
3E9
  8
0_INFO
 62
     2
 10
-3225.5
 20
-2526.179874915184
 30
0.0
 11
-3238.0
 21
-2526.179874915184
 31
0.0
  0
LINE
  5
3EA
  8
0_INFO
 62
     2
 10
-3238.0
 20
-2526.179874915184
 30
0.0
 11
-3238.0
 21
-2515.679874915184
 31
0.0
  0
LINE
  5
3EB
  8
0_INFO
 62
     2
 10
-3212.0
 20
-2503.679874915184
 30
0.0
 11
-3224.5
 21
-2503.679874915184
 31
0.0
  0
LINE
  5
3EC
  8
0_INFO
 62
     2
 10
-3224.5
 20
-2503.679874915184
 30
0.0
 11
-3224.5
 21
-2514.679874915184
 31
0.0
  0
LINE
  5
3ED
  8
0_INFO
 62
     2
 10
-3224.5
 20
-2514.679874915184
 30
0.0
 11
-3212.0
 21
-2514.679874915184
 31
0.0
  0
LINE
  5
3EE
  8
0_INFO
 62
     2
 10
-3212.0
 20
-2514.679874915184
 30
0.0
 11
-3212.0
 21
-2503.679874915184
 31
0.0
  0
LINE
  5
3EF
  8
0_INFO
 62
     2
 10
-3238.0
 20
-2514.679874915184
 30
0.0
 11
-3225.5
 21
-2514.679874915184
 31
0.0
  0
LINE
  5
3F0
  8
0_INFO
 62
     2
 10
-3225.5
 20
-2514.679874915184
 30
0.0
 11
-3225.5
 21
-2503.679874915184
 31
0.0
  0
LINE
  5
3F1
  8
0_INFO
 62
     2
 10
-3225.5
 20
-2503.679874915184
 30
0.0
 11
-3238.0
 21
-2503.679874915184
 31
0.0
  0
LINE
  5
3F2
  8
0_INFO
 62
     2
 10
-3238.0
 20
-2503.679874915184
 30
0.0
 11
-3238.0
 21
-2514.679874915184
 31
0.0
  0
LINE
  5
3F3
  8
0_INFO
 62
     2
 10
-3278.0
 20
-2549.679874915184
 30
0.0
 11
-3265.5
 21
-2549.679874915184
 31
0.0
  0
LINE
  5
3F4
  8
0_INFO
 62
     2
 10
-3265.5
 20
-2549.679874915184
 30
0.0
 11
-3265.5
 21
-2538.679874915184
 31
0.0
  0
LINE
  5
3F5
  8
0_INFO
 62
     2
 10
-3265.5
 20
-2538.679874915184
 30
0.0
 11
-3278.0
 21
-2538.679874915184
 31
0.0
  0
LINE
  5
3F6
  8
0_INFO
 62
     2
 10
-3278.0
 20
-2538.679874915184
 30
0.0
 11
-3278.0
 21
-2549.679874915184
 31
0.0
  0
LINE
  5
3F7
  8
0_INFO
 62
     2
 10
-3252.0
 20
-2538.679874915184
 30
0.0
 11
-3264.5
 21
-2538.679874915184
 31
0.0
  0
LINE
  5
3F8
  8
0_INFO
 62
     2
 10
-3264.5
 20
-2538.679874915184
 30
0.0
 11
-3264.5
 21
-2549.679874915184
 31
0.0
  0
LINE
  5
3F9
  8
0_INFO
 62
     2
 10
-3264.5
 20
-2549.679874915184
 30
0.0
 11
-3252.0
 21
-2549.679874915184
 31
0.0
  0
LINE
  5
3FA
  8
0_INFO
 62
     2
 10
-3252.0
 20
-2549.679874915184
 30
0.0
 11
-3252.0
 21
-2538.679874915184
 31
0.0
  0
LINE
  5
3FB
  8
0_INFO
 62
     2
 10
-3278.0
 20
-2527.179874915184
 30
0.0
 11
-3265.5
 21
-2527.179874915184
 31
0.0
  0
LINE
  5
3FC
  8
0_INFO
 62
     2
 10
-3265.5
 20
-2527.179874915184
 30
0.0
 11
-3265.5
 21
-2537.679874915184
 31
0.0
  0
LINE
  5
3FD
  8
0_INFO
 62
     2
 10
-3265.5
 20
-2537.679874915184
 30
0.0
 11
-3278.0
 21
-2537.679874915184
 31
0.0
  0
LINE
  5
3FE
  8
0_INFO
 62
     2
 10
-3278.0
 20
-2537.679874915184
 30
0.0
 11
-3278.0
 21
-2527.179874915184
 31
0.0
  0
LINE
  5
3FF
  8
0_INFO
 62
     2
 10
-3252.0
 20
-2537.679874915184
 30
0.0
 11
-3264.5
 21
-2537.679874915184
 31
0.0
  0
LINE
  5
400
  8
0_INFO
 62
     2
 10
-3264.5
 20
-2537.679874915184
 30
0.0
 11
-3264.5
 21
-2527.179874915184
 31
0.0
  0
LINE
  5
401
  8
0_INFO
 62
     2
 10
-3264.5
 20
-2527.179874915184
 30
0.0
 11
-3252.0
 21
-2527.179874915184
 31
0.0
  0
LINE
  5
402
  8
0_INFO
 62
     2
 10
-3252.0
 20
-2527.179874915184
 30
0.0
 11
-3252.0
 21
-2537.679874915184
 31
0.0
  0
LINE
  5
403
  8
0_INFO
 62
     2
 10
-3278.0
 20
-2526.179874915184
 30
0.0
 11
-3265.5
 21
-2526.179874915184
 31
0.0
  0
LINE
  5
404
  8
0_INFO
 62
     2
 10
-3265.5
 20
-2526.179874915184
 30
0.0
 11
-3265.5
 21
-2515.679874915184
 31
0.0
  0
LINE
  5
405
  8
0_INFO
 62
     2
 10
-3265.5
 20
-2515.679874915184
 30
0.0
 11
-3278.0
 21
-2515.679874915184
 31
0.0
  0
LINE
  5
406
  8
0_INFO
 62
     2
 10
-3278.0
 20
-2515.679874915184
 30
0.0
 11
-3278.0
 21
-2526.179874915184
 31
0.0
  0
LINE
  5
407
  8
0_INFO
 62
     2
 10
-3252.0
 20
-2515.679874915184
 30
0.0
 11
-3264.5
 21
-2515.679874915184
 31
0.0
  0
LINE
  5
408
  8
0_INFO
 62
     2
 10
-3264.5
 20
-2515.679874915184
 30
0.0
 11
-3264.5
 21
-2526.179874915184
 31
0.0
  0
LINE
  5
409
  8
0_INFO
 62
     2
 10
-3264.5
 20
-2526.179874915184
 30
0.0
 11
-3252.0
 21
-2526.179874915184
 31
0.0
  0
LINE
  5
40A
  8
0_INFO
 62
     2
 10
-3252.0
 20
-2526.179874915184
 30
0.0
 11
-3252.0
 21
-2515.679874915184
 31
0.0
  0
LINE
  5
40B
  8
0_INFO
 62
     2
 10
-3278.0
 20
-2503.679874915184
 30
0.0
 11
-3265.5
 21
-2503.679874915184
 31
0.0
  0
LINE
  5
40C
  8
0_INFO
 62
     2
 10
-3265.5
 20
-2503.679874915184
 30
0.0
 11
-3265.5
 21
-2514.679874915184
 31
0.0
  0
LINE
  5
40D
  8
0_INFO
 62
     2
 10
-3265.5
 20
-2514.679874915184
 30
0.0
 11
-3278.0
 21
-2514.679874915184
 31
0.0
  0
LINE
  5
40E
  8
0_INFO
 62
     2
 10
-3278.0
 20
-2514.679874915184
 30
0.0
 11
-3278.0
 21
-2503.679874915184
 31
0.0
  0
LINE
  5
40F
  8
0_INFO
 62
     2
 10
-3252.0
 20
-2514.679874915184
 30
0.0
 11
-3264.5
 21
-2514.679874915184
 31
0.0
  0
LINE
  5
410
  8
0_INFO
 62
     2
 10
-3264.5
 20
-2514.679874915184
 30
0.0
 11
-3264.5
 21
-2503.679874915184
 31
0.0
  0
LINE
  5
411
  8
0_INFO
 62
     2
 10
-3264.5
 20
-2503.679874915184
 30
0.0
 11
-3252.0
 21
-2503.679874915184
 31
0.0
  0
LINE
  5
412
  8
0_INFO
 62
     2
 10
-3252.0
 20
-2503.679874915184
 30
0.0
 11
-3252.0
 21
-2514.679874915184
 31
0.0
  0
LINE
  5
413
  8
0_INFO
 62
     1
 10
-3306.0
 20
-2551.679874915185
 30
0.0
 11
-3306.0
 21
-2553.679874915185
 31
0.0
  0
LINE
  5
414
  8
0_INFO
 62
     1
 10
-3306.0
 20
-2553.679874915185
 30
0.0
 11
-3384.0
 21
-2553.679874915184
 31
0.0
  0
LINE
  5
415
  8
0_INFO
 62
     1
 10
-3384.0
 20
-2553.679874915184
 30
0.0
 11
-3384.0
 21
-2551.679874915184
 31
0.0
  0
LINE
  5
416
  8
0_INFO
 62
     1
 10
-3384.0
 20
-2551.679874915184
 30
0.0
 11
-3306.0
 21
-2551.679874915185
 31
0.0
  0
LINE
  5
417
  8
0_INFO
 62
     2
 10
-3312.0
 20
-2549.679874915184
 30
0.0
 11
-3324.5
 21
-2549.679874915184
 31
0.0
  0
LINE
  5
418
  8
0_INFO
 62
     2
 10
-3324.5
 20
-2549.679874915184
 30
0.0
 11
-3324.5
 21
-2538.679874915184
 31
0.0
  0
LINE
  5
419
  8
0_INFO
 62
     2
 10
-3324.5
 20
-2538.679874915184
 30
0.0
 11
-3312.0
 21
-2538.679874915184
 31
0.0
  0
LINE
  5
41A
  8
0_INFO
 62
     2
 10
-3312.0
 20
-2538.679874915184
 30
0.0
 11
-3312.0
 21
-2549.679874915184
 31
0.0
  0
LINE
  5
41B
  8
0_INFO
 62
     2
 10
-3338.0
 20
-2538.679874915184
 30
0.0
 11
-3325.5
 21
-2538.679874915184
 31
0.0
  0
LINE
  5
41C
  8
0_INFO
 62
     2
 10
-3325.5
 20
-2538.679874915184
 30
0.0
 11
-3325.5
 21
-2549.679874915184
 31
0.0
  0
LINE
  5
41D
  8
0_INFO
 62
     2
 10
-3325.5
 20
-2549.679874915184
 30
0.0
 11
-3338.0
 21
-2549.679874915184
 31
0.0
  0
LINE
  5
41E
  8
0_INFO
 62
     2
 10
-3338.0
 20
-2549.679874915184
 30
0.0
 11
-3338.0
 21
-2538.679874915184
 31
0.0
  0
LINE
  5
41F
  8
0_INFO
 62
     2
 10
-3312.0
 20
-2527.179874915184
 30
0.0
 11
-3324.5
 21
-2527.179874915184
 31
0.0
  0
LINE
  5
420
  8
0_INFO
 62
     2
 10
-3324.5
 20
-2527.179874915184
 30
0.0
 11
-3324.5
 21
-2537.679874915184
 31
0.0
  0
LINE
  5
421
  8
0_INFO
 62
     2
 10
-3324.5
 20
-2537.679874915184
 30
0.0
 11
-3312.0
 21
-2537.679874915184
 31
0.0
  0
LINE
  5
422
  8
0_INFO
 62
     2
 10
-3312.0
 20
-2537.679874915184
 30
0.0
 11
-3312.0
 21
-2527.179874915184
 31
0.0
  0
LINE
  5
423
  8
0_INFO
 62
     2
 10
-3338.0
 20
-2537.679874915184
 30
0.0
 11
-3325.5
 21
-2537.679874915184
 31
0.0
  0
LINE
  5
424
  8
0_INFO
 62
     2
 10
-3325.5
 20
-2537.679874915184
 30
0.0
 11
-3325.5
 21
-2527.179874915184
 31
0.0
  0
LINE
  5
425
  8
0_INFO
 62
     2
 10
-3325.5
 20
-2527.179874915184
 30
0.0
 11
-3338.0
 21
-2527.179874915184
 31
0.0
  0
LINE
  5
426
  8
0_INFO
 62
     2
 10
-3338.0
 20
-2527.179874915184
 30
0.0
 11
-3338.0
 21
-2537.679874915184
 31
0.0
  0
LINE
  5
427
  8
0_INFO
 62
     2
 10
-3312.0
 20
-2526.179874915184
 30
0.0
 11
-3324.5
 21
-2526.179874915184
 31
0.0
  0
LINE
  5
428
  8
0_INFO
 62
     2
 10
-3324.5
 20
-2526.179874915184
 30
0.0
 11
-3324.5
 21
-2515.679874915184
 31
0.0
  0
LINE
  5
429
  8
0_INFO
 62
     2
 10
-3324.5
 20
-2515.679874915184
 30
0.0
 11
-3312.0
 21
-2515.679874915184
 31
0.0
  0
LINE
  5
42A
  8
0_INFO
 62
     2
 10
-3312.0
 20
-2515.679874915184
 30
0.0
 11
-3312.0
 21
-2526.179874915184
 31
0.0
  0
LINE
  5
42B
  8
0_INFO
 62
     2
 10
-3338.0
 20
-2515.679874915184
 30
0.0
 11
-3325.5
 21
-2515.679874915184
 31
0.0
  0
LINE
  5
42C
  8
0_INFO
 62
     2
 10
-3325.5
 20
-2515.679874915184
 30
0.0
 11
-3325.5
 21
-2526.179874915184
 31
0.0
  0
LINE
  5
42D
  8
0_INFO
 62
     2
 10
-3325.5
 20
-2526.179874915184
 30
0.0
 11
-3338.0
 21
-2526.179874915184
 31
0.0
  0
LINE
  5
42E
  8
0_INFO
 62
     2
 10
-3338.0
 20
-2526.179874915184
 30
0.0
 11
-3338.0
 21
-2515.679874915184
 31
0.0
  0
LINE
  5
42F
  8
0_INFO
 62
     2
 10
-3312.0
 20
-2503.679874915184
 30
0.0
 11
-3324.5
 21
-2503.679874915184
 31
0.0
  0
LINE
  5
430
  8
0_INFO
 62
     2
 10
-3324.5
 20
-2503.679874915184
 30
0.0
 11
-3324.5
 21
-2514.679874915184
 31
0.0
  0
LINE
  5
431
  8
0_INFO
 62
     2
 10
-3324.5
 20
-2514.679874915184
 30
0.0
 11
-3312.0
 21
-2514.679874915184
 31
0.0
  0
LINE
  5
432
  8
0_INFO
 62
     2
 10
-3312.0
 20
-2514.679874915184
 30
0.0
 11
-3312.0
 21
-2503.679874915184
 31
0.0
  0
LINE
  5
433
  8
0_INFO
 62
     2
 10
-3338.0
 20
-2514.679874915184
 30
0.0
 11
-3325.5
 21
-2514.679874915184
 31
0.0
  0
LINE
  5
434
  8
0_INFO
 62
     2
 10
-3325.5
 20
-2514.679874915184
 30
0.0
 11
-3325.5
 21
-2503.679874915184
 31
0.0
  0
LINE
  5
435
  8
0_INFO
 62
     2
 10
-3325.5
 20
-2503.679874915184
 30
0.0
 11
-3338.0
 21
-2503.679874915184
 31
0.0
  0
LINE
  5
436
  8
0_INFO
 62
     2
 10
-3338.0
 20
-2503.679874915184
 30
0.0
 11
-3338.0
 21
-2514.679874915184
 31
0.0
  0
LINE
  5
437
  8
0_INFO
 62
     2
 10
-3378.0
 20
-2549.679874915184
 30
0.0
 11
-3365.5
 21
-2549.679874915184
 31
0.0
  0
LINE
  5
438
  8
0_INFO
 62
     2
 10
-3365.5
 20
-2549.679874915184
 30
0.0
 11
-3365.5
 21
-2538.679874915184
 31
0.0
  0
LINE
  5
439
  8
0_INFO
 62
     2
 10
-3365.5
 20
-2538.679874915184
 30
0.0
 11
-3378.0
 21
-2538.679874915184
 31
0.0
  0
LINE
  5
43A
  8
0_INFO
 62
     2
 10
-3378.0
 20
-2538.679874915184
 30
0.0
 11
-3378.0
 21
-2549.679874915184
 31
0.0
  0
LINE
  5
43B
  8
0_INFO
 62
     2
 10
-3352.0
 20
-2538.679874915184
 30
0.0
 11
-3364.5
 21
-2538.679874915184
 31
0.0
  0
LINE
  5
43C
  8
0_INFO
 62
     2
 10
-3364.5
 20
-2538.679874915184
 30
0.0
 11
-3364.5
 21
-2549.679874915184
 31
0.0
  0
LINE
  5
43D
  8
0_INFO
 62
     2
 10
-3364.5
 20
-2549.679874915184
 30
0.0
 11
-3352.0
 21
-2549.679874915184
 31
0.0
  0
LINE
  5
43E
  8
0_INFO
 62
     2
 10
-3352.0
 20
-2549.679874915184
 30
0.0
 11
-3352.0
 21
-2538.679874915184
 31
0.0
  0
LINE
  5
43F
  8
0_INFO
 62
     2
 10
-3378.0
 20
-2527.179874915184
 30
0.0
 11
-3365.5
 21
-2527.179874915184
 31
0.0
  0
LINE
  5
440
  8
0_INFO
 62
     2
 10
-3365.5
 20
-2527.179874915184
 30
0.0
 11
-3365.5
 21
-2537.679874915184
 31
0.0
  0
LINE
  5
441
  8
0_INFO
 62
     2
 10
-3365.5
 20
-2537.679874915184
 30
0.0
 11
-3378.0
 21
-2537.679874915184
 31
0.0
  0
LINE
  5
442
  8
0_INFO
 62
     2
 10
-3378.0
 20
-2537.679874915184
 30
0.0
 11
-3378.0
 21
-2527.179874915184
 31
0.0
  0
LINE
  5
443
  8
0_INFO
 62
     2
 10
-3352.0
 20
-2537.679874915184
 30
0.0
 11
-3364.5
 21
-2537.679874915184
 31
0.0
  0
LINE
  5
444
  8
0_INFO
 62
     2
 10
-3364.5
 20
-2537.679874915184
 30
0.0
 11
-3364.5
 21
-2527.179874915184
 31
0.0
  0
LINE
  5
445
  8
0_INFO
 62
     2
 10
-3364.5
 20
-2527.179874915184
 30
0.0
 11
-3352.0
 21
-2527.179874915184
 31
0.0
  0
LINE
  5
446
  8
0_INFO
 62
     2
 10
-3352.0
 20
-2527.179874915184
 30
0.0
 11
-3352.0
 21
-2537.679874915184
 31
0.0
  0
LINE
  5
447
  8
0_INFO
 62
     2
 10
-3378.0
 20
-2526.179874915184
 30
0.0
 11
-3365.5
 21
-2526.179874915184
 31
0.0
  0
LINE
  5
448
  8
0_INFO
 62
     2
 10
-3365.5
 20
-2526.179874915184
 30
0.0
 11
-3365.5
 21
-2515.679874915184
 31
0.0
  0
LINE
  5
449
  8
0_INFO
 62
     2
 10
-3365.5
 20
-2515.679874915184
 30
0.0
 11
-3378.0
 21
-2515.679874915184
 31
0.0
  0
LINE
  5
44A
  8
0_INFO
 62
     2
 10
-3378.0
 20
-2515.679874915184
 30
0.0
 11
-3378.0
 21
-2526.179874915184
 31
0.0
  0
LINE
  5
44B
  8
0_INFO
 62
     2
 10
-3352.0
 20
-2515.679874915184
 30
0.0
 11
-3364.5
 21
-2515.679874915184
 31
0.0
  0
LINE
  5
44C
  8
0_INFO
 62
     2
 10
-3364.5
 20
-2515.679874915184
 30
0.0
 11
-3364.5
 21
-2526.179874915184
 31
0.0
  0
LINE
  5
44D
  8
0_INFO
 62
     2
 10
-3364.5
 20
-2526.179874915184
 30
0.0
 11
-3352.0
 21
-2526.179874915184
 31
0.0
  0
LINE
  5
44E
  8
0_INFO
 62
     2
 10
-3352.0
 20
-2526.179874915184
 30
0.0
 11
-3352.0
 21
-2515.679874915184
 31
0.0
  0
LINE
  5
44F
  8
0_INFO
 62
     2
 10
-3378.0
 20
-2503.679874915184
 30
0.0
 11
-3365.5
 21
-2503.679874915184
 31
0.0
  0
LINE
  5
450
  8
0_INFO
 62
     2
 10
-3365.5
 20
-2503.679874915184
 30
0.0
 11
-3365.5
 21
-2514.679874915184
 31
0.0
  0
LINE
  5
451
  8
0_INFO
 62
     2
 10
-3365.5
 20
-2514.679874915184
 30
0.0
 11
-3378.0
 21
-2514.679874915184
 31
0.0
  0
LINE
  5
452
  8
0_INFO
 62
     2
 10
-3378.0
 20
-2514.679874915184
 30
0.0
 11
-3378.0
 21
-2503.679874915184
 31
0.0
  0
LINE
  5
453
  8
0_INFO
 62
     2
 10
-3352.0
 20
-2514.679874915184
 30
0.0
 11
-3364.5
 21
-2514.679874915184
 31
0.0
  0
LINE
  5
454
  8
0_INFO
 62
     2
 10
-3364.5
 20
-2514.679874915184
 30
0.0
 11
-3364.5
 21
-2503.679874915184
 31
0.0
  0
LINE
  5
455
  8
0_INFO
 62
     2
 10
-3364.5
 20
-2503.679874915184
 30
0.0
 11
-3352.0
 21
-2503.679874915184
 31
0.0
  0
LINE
  5
456
  8
0_INFO
 62
     2
 10
-3352.0
 20
-2503.679874915184
 30
0.0
 11
-3352.0
 21
-2514.679874915184
 31
0.0
  0
LINE
  5
457
  8
0_INFO
 62
     1
 10
-3406.0
 20
-2551.679874915185
 30
0.0
 11
-3406.0
 21
-2553.679874915185
 31
0.0
  0
LINE
  5
458
  8
0_INFO
 62
     1
 10
-3406.0
 20
-2553.679874915185
 30
0.0
 11
-3484.0
 21
-2553.679874915184
 31
0.0
  0
LINE
  5
459
  8
0_INFO
 62
     1
 10
-3484.0
 20
-2553.679874915184
 30
0.0
 11
-3484.0
 21
-2551.679874915184
 31
0.0
  0
LINE
  5
45A
  8
0_INFO
 62
     1
 10
-3484.0
 20
-2551.679874915184
 30
0.0
 11
-3406.0
 21
-2551.679874915185
 31
0.0
  0
LINE
  5
45B
  8
0_INFO
 62
     2
 10
-3412.0
 20
-2549.679874915184
 30
0.0
 11
-3424.5
 21
-2549.679874915184
 31
0.0
  0
LINE
  5
45C
  8
0_INFO
 62
     2
 10
-3424.5
 20
-2549.679874915184
 30
0.0
 11
-3424.5
 21
-2538.679874915184
 31
0.0
  0
LINE
  5
45D
  8
0_INFO
 62
     2
 10
-3424.5
 20
-2538.679874915184
 30
0.0
 11
-3412.0
 21
-2538.679874915184
 31
0.0
  0
LINE
  5
45E
  8
0_INFO
 62
     2
 10
-3412.0
 20
-2538.679874915184
 30
0.0
 11
-3412.0
 21
-2549.679874915184
 31
0.0
  0
LINE
  5
45F
  8
0_INFO
 62
     2
 10
-3438.0
 20
-2538.679874915184
 30
0.0
 11
-3425.5
 21
-2538.679874915184
 31
0.0
  0
LINE
  5
460
  8
0_INFO
 62
     2
 10
-3425.5
 20
-2538.679874915184
 30
0.0
 11
-3425.5
 21
-2549.679874915184
 31
0.0
  0
LINE
  5
461
  8
0_INFO
 62
     2
 10
-3425.5
 20
-2549.679874915184
 30
0.0
 11
-3438.0
 21
-2549.679874915184
 31
0.0
  0
LINE
  5
462
  8
0_INFO
 62
     2
 10
-3438.0
 20
-2549.679874915184
 30
0.0
 11
-3438.0
 21
-2538.679874915184
 31
0.0
  0
LINE
  5
463
  8
0_INFO
 62
     2
 10
-3412.0
 20
-2527.179874915184
 30
0.0
 11
-3424.5
 21
-2527.179874915184
 31
0.0
  0
LINE
  5
464
  8
0_INFO
 62
     2
 10
-3424.5
 20
-2527.179874915184
 30
0.0
 11
-3424.5
 21
-2537.679874915184
 31
0.0
  0
LINE
  5
465
  8
0_INFO
 62
     2
 10
-3424.5
 20
-2537.679874915184
 30
0.0
 11
-3412.0
 21
-2537.679874915184
 31
0.0
  0
LINE
  5
466
  8
0_INFO
 62
     2
 10
-3412.0
 20
-2537.679874915184
 30
0.0
 11
-3412.0
 21
-2527.179874915184
 31
0.0
  0
LINE
  5
467
  8
0_INFO
 62
     2
 10
-3438.0
 20
-2537.679874915184
 30
0.0
 11
-3425.5
 21
-2537.679874915184
 31
0.0
  0
LINE
  5
468
  8
0_INFO
 62
     2
 10
-3425.5
 20
-2537.679874915184
 30
0.0
 11
-3425.5
 21
-2527.179874915184
 31
0.0
  0
LINE
  5
469
  8
0_INFO
 62
     2
 10
-3425.5
 20
-2527.179874915184
 30
0.0
 11
-3438.0
 21
-2527.179874915184
 31
0.0
  0
LINE
  5
46A
  8
0_INFO
 62
     2
 10
-3438.0
 20
-2527.179874915184
 30
0.0
 11
-3438.0
 21
-2537.679874915184
 31
0.0
  0
LINE
  5
46B
  8
0_INFO
 62
     2
 10
-3412.0
 20
-2526.179874915184
 30
0.0
 11
-3424.5
 21
-2526.179874915184
 31
0.0
  0
LINE
  5
46C
  8
0_INFO
 62
     2
 10
-3424.5
 20
-2526.179874915184
 30
0.0
 11
-3424.5
 21
-2515.679874915184
 31
0.0
  0
LINE
  5
46D
  8
0_INFO
 62
     2
 10
-3424.5
 20
-2515.679874915184
 30
0.0
 11
-3412.0
 21
-2515.679874915184
 31
0.0
  0
LINE
  5
46E
  8
0_INFO
 62
     2
 10
-3412.0
 20
-2515.679874915184
 30
0.0
 11
-3412.0
 21
-2526.179874915184
 31
0.0
  0
LINE
  5
46F
  8
0_INFO
 62
     2
 10
-3438.0
 20
-2515.679874915184
 30
0.0
 11
-3425.5
 21
-2515.679874915184
 31
0.0
  0
LINE
  5
470
  8
0_INFO
 62
     2
 10
-3425.5
 20
-2515.679874915184
 30
0.0
 11
-3425.5
 21
-2526.179874915184
 31
0.0
  0
LINE
  5
471
  8
0_INFO
 62
     2
 10
-3425.5
 20
-2526.179874915184
 30
0.0
 11
-3438.0
 21
-2526.179874915184
 31
0.0
  0
LINE
  5
472
  8
0_INFO
 62
     2
 10
-3438.0
 20
-2526.179874915184
 30
0.0
 11
-3438.0
 21
-2515.679874915184
 31
0.0
  0
LINE
  5
473
  8
0_INFO
 62
     2
 10
-3412.0
 20
-2503.679874915184
 30
0.0
 11
-3424.5
 21
-2503.679874915184
 31
0.0
  0
LINE
  5
474
  8
0_INFO
 62
     2
 10
-3424.5
 20
-2503.679874915184
 30
0.0
 11
-3424.5
 21
-2514.679874915184
 31
0.0
  0
LINE
  5
475
  8
0_INFO
 62
     2
 10
-3424.5
 20
-2514.679874915184
 30
0.0
 11
-3412.0
 21
-2514.679874915184
 31
0.0
  0
LINE
  5
476
  8
0_INFO
 62
     2
 10
-3412.0
 20
-2514.679874915184
 30
0.0
 11
-3412.0
 21
-2503.679874915184
 31
0.0
  0
LINE
  5
477
  8
0_INFO
 62
     2
 10
-3438.0
 20
-2514.679874915184
 30
0.0
 11
-3425.5
 21
-2514.679874915184
 31
0.0
  0
LINE
  5
478
  8
0_INFO
 62
     2
 10
-3425.5
 20
-2514.679874915184
 30
0.0
 11
-3425.5
 21
-2503.679874915184
 31
0.0
  0
LINE
  5
479
  8
0_INFO
 62
     2
 10
-3425.5
 20
-2503.679874915184
 30
0.0
 11
-3438.0
 21
-2503.679874915184
 31
0.0
  0
LINE
  5
47A
  8
0_INFO
 62
     2
 10
-3438.0
 20
-2503.679874915184
 30
0.0
 11
-3438.0
 21
-2514.679874915184
 31
0.0
  0
LINE
  5
47B
  8
0_INFO
 62
     2
 10
-3478.0
 20
-2549.679874915184
 30
0.0
 11
-3465.5
 21
-2549.679874915184
 31
0.0
  0
LINE
  5
47C
  8
0_INFO
 62
     2
 10
-3465.5
 20
-2549.679874915184
 30
0.0
 11
-3465.5
 21
-2538.679874915184
 31
0.0
  0
LINE
  5
47D
  8
0_INFO
 62
     2
 10
-3465.5
 20
-2538.679874915184
 30
0.0
 11
-3478.0
 21
-2538.679874915184
 31
0.0
  0
LINE
  5
47E
  8
0_INFO
 62
     2
 10
-3478.0
 20
-2538.679874915184
 30
0.0
 11
-3478.0
 21
-2549.679874915184
 31
0.0
  0
LINE
  5
47F
  8
0_INFO
 62
     2
 10
-3452.0
 20
-2538.679874915184
 30
0.0
 11
-3464.5
 21
-2538.679874915184
 31
0.0
  0
LINE
  5
480
  8
0_INFO
 62
     2
 10
-3464.5
 20
-2538.679874915184
 30
0.0
 11
-3464.5
 21
-2549.679874915184
 31
0.0
  0
LINE
  5
481
  8
0_INFO
 62
     2
 10
-3464.5
 20
-2549.679874915184
 30
0.0
 11
-3452.0
 21
-2549.679874915184
 31
0.0
  0
LINE
  5
482
  8
0_INFO
 62
     2
 10
-3452.0
 20
-2549.679874915184
 30
0.0
 11
-3452.0
 21
-2538.679874915184
 31
0.0
  0
LINE
  5
483
  8
0_INFO
 62
     2
 10
-3478.0
 20
-2527.179874915184
 30
0.0
 11
-3465.5
 21
-2527.179874915184
 31
0.0
  0
LINE
  5
484
  8
0_INFO
 62
     2
 10
-3465.5
 20
-2527.179874915184
 30
0.0
 11
-3465.5
 21
-2537.679874915184
 31
0.0
  0
LINE
  5
485
  8
0_INFO
 62
     2
 10
-3465.5
 20
-2537.679874915184
 30
0.0
 11
-3478.0
 21
-2537.679874915184
 31
0.0
  0
LINE
  5
486
  8
0_INFO
 62
     2
 10
-3478.0
 20
-2537.679874915184
 30
0.0
 11
-3478.0
 21
-2527.179874915184
 31
0.0
  0
LINE
  5
487
  8
0_INFO
 62
     2
 10
-3452.0
 20
-2537.679874915184
 30
0.0
 11
-3464.5
 21
-2537.679874915184
 31
0.0
  0
LINE
  5
488
  8
0_INFO
 62
     2
 10
-3464.5
 20
-2537.679874915184
 30
0.0
 11
-3464.5
 21
-2527.179874915184
 31
0.0
  0
LINE
  5
489
  8
0_INFO
 62
     2
 10
-3464.5
 20
-2527.179874915184
 30
0.0
 11
-3452.0
 21
-2527.179874915184
 31
0.0
  0
LINE
  5
48A
  8
0_INFO
 62
     2
 10
-3452.0
 20
-2527.179874915184
 30
0.0
 11
-3452.0
 21
-2537.679874915184
 31
0.0
  0
LINE
  5
48B
  8
0_INFO
 62
     2
 10
-3478.0
 20
-2526.179874915184
 30
0.0
 11
-3465.5
 21
-2526.179874915184
 31
0.0
  0
LINE
  5
48C
  8
0_INFO
 62
     2
 10
-3465.5
 20
-2526.179874915184
 30
0.0
 11
-3465.5
 21
-2515.679874915184
 31
0.0
  0
LINE
  5
48D
  8
0_INFO
 62
     2
 10
-3465.5
 20
-2515.679874915184
 30
0.0
 11
-3478.0
 21
-2515.679874915184
 31
0.0
  0
LINE
  5
48E
  8
0_INFO
 62
     2
 10
-3478.0
 20
-2515.679874915184
 30
0.0
 11
-3478.0
 21
-2526.179874915184
 31
0.0
  0
LINE
  5
48F
  8
0_INFO
 62
     2
 10
-3452.0
 20
-2515.679874915184
 30
0.0
 11
-3464.5
 21
-2515.679874915184
 31
0.0
  0
LINE
  5
490
  8
0_INFO
 62
     2
 10
-3464.5
 20
-2515.679874915184
 30
0.0
 11
-3464.5
 21
-2526.179874915184
 31
0.0
  0
LINE
  5
491
  8
0_INFO
 62
     2
 10
-3464.5
 20
-2526.179874915184
 30
0.0
 11
-3452.0
 21
-2526.179874915184
 31
0.0
  0
LINE
  5
492
  8
0_INFO
 62
     2
 10
-3452.0
 20
-2526.179874915184
 30
0.0
 11
-3452.0
 21
-2515.679874915184
 31
0.0
  0
LINE
  5
493
  8
0_INFO
 62
     2
 10
-3478.0
 20
-2503.679874915184
 30
0.0
 11
-3465.5
 21
-2503.679874915184
 31
0.0
  0
LINE
  5
494
  8
0_INFO
 62
     2
 10
-3465.5
 20
-2503.679874915184
 30
0.0
 11
-3465.5
 21
-2514.679874915184
 31
0.0
  0
LINE
  5
495
  8
0_INFO
 62
     2
 10
-3465.5
 20
-2514.679874915184
 30
0.0
 11
-3478.0
 21
-2514.679874915184
 31
0.0
  0
LINE
  5
496
  8
0_INFO
 62
     2
 10
-3478.0
 20
-2514.679874915184
 30
0.0
 11
-3478.0
 21
-2503.679874915184
 31
0.0
  0
LINE
  5
497
  8
0_INFO
 62
     2
 10
-3452.0
 20
-2514.679874915184
 30
0.0
 11
-3464.5
 21
-2514.679874915184
 31
0.0
  0
LINE
  5
498
  8
0_INFO
 62
     2
 10
-3464.5
 20
-2514.679874915184
 30
0.0
 11
-3464.5
 21
-2503.679874915184
 31
0.0
  0
LINE
  5
499
  8
0_INFO
 62
     2
 10
-3464.5
 20
-2503.679874915184
 30
0.0
 11
-3452.0
 21
-2503.679874915184
 31
0.0
  0
LINE
  5
49A
  8
0_INFO
 62
     2
 10
-3452.0
 20
-2503.679874915184
 30
0.0
 11
-3452.0
 21
-2514.679874915184
 31
0.0
  0
LINE
  5
49B
  8
0_INFO
 62
     1
 10
-3486.0
 20
-2551.679874915185
 30
0.0
 11
-3486.0
 21
-2553.679874915185
 31
0.0
  0
LINE
  5
49C
  8
0_INFO
 62
     1
 10
-3486.0
 20
-2553.679874915185
 30
0.0
 11
-3564.0
 21
-2553.679874915184
 31
0.0
  0
LINE
  5
49D
  8
0_INFO
 62
     1
 10
-3564.0
 20
-2553.679874915184
 30
0.0
 11
-3564.0
 21
-2551.679874915184
 31
0.0
  0
LINE
  5
49E
  8
0_INFO
 62
     1
 10
-3564.0
 20
-2551.679874915184
 30
0.0
 11
-3486.0
 21
-2551.679874915185
 31
0.0
  0
LINE
  5
49F
  8
0_INFO
 62
     2
 10
-3492.0
 20
-2549.679874915184
 30
0.0
 11
-3504.5
 21
-2549.679874915184
 31
0.0
  0
LINE
  5
4A0
  8
0_INFO
 62
     2
 10
-3504.5
 20
-2549.679874915184
 30
0.0
 11
-3504.5
 21
-2538.679874915184
 31
0.0
  0
LINE
  5
4A1
  8
0_INFO
 62
     2
 10
-3504.5
 20
-2538.679874915184
 30
0.0
 11
-3492.0
 21
-2538.679874915184
 31
0.0
  0
LINE
  5
4A2
  8
0_INFO
 62
     2
 10
-3492.0
 20
-2538.679874915184
 30
0.0
 11
-3492.0
 21
-2549.679874915184
 31
0.0
  0
LINE
  5
4A3
  8
0_INFO
 62
     2
 10
-3518.0
 20
-2538.679874915184
 30
0.0
 11
-3505.5
 21
-2538.679874915184
 31
0.0
  0
LINE
  5
4A4
  8
0_INFO
 62
     2
 10
-3505.5
 20
-2538.679874915184
 30
0.0
 11
-3505.5
 21
-2549.679874915184
 31
0.0
  0
LINE
  5
4A5
  8
0_INFO
 62
     2
 10
-3505.5
 20
-2549.679874915184
 30
0.0
 11
-3518.0
 21
-2549.679874915184
 31
0.0
  0
LINE
  5
4A6
  8
0_INFO
 62
     2
 10
-3518.0
 20
-2549.679874915184
 30
0.0
 11
-3518.0
 21
-2538.679874915184
 31
0.0
  0
LINE
  5
4A7
  8
0_INFO
 62
     2
 10
-3492.0
 20
-2527.179874915184
 30
0.0
 11
-3504.5
 21
-2527.179874915184
 31
0.0
  0
LINE
  5
4A8
  8
0_INFO
 62
     2
 10
-3504.5
 20
-2527.179874915184
 30
0.0
 11
-3504.5
 21
-2537.679874915184
 31
0.0
  0
LINE
  5
4A9
  8
0_INFO
 62
     2
 10
-3504.5
 20
-2537.679874915184
 30
0.0
 11
-3492.0
 21
-2537.679874915184
 31
0.0
  0
LINE
  5
4AA
  8
0_INFO
 62
     2
 10
-3492.0
 20
-2537.679874915184
 30
0.0
 11
-3492.0
 21
-2527.179874915184
 31
0.0
  0
LINE
  5
4AB
  8
0_INFO
 62
     2
 10
-3518.0
 20
-2537.679874915184
 30
0.0
 11
-3505.5
 21
-2537.679874915184
 31
0.0
  0
LINE
  5
4AC
  8
0_INFO
 62
     2
 10
-3505.5
 20
-2537.679874915184
 30
0.0
 11
-3505.5
 21
-2527.179874915184
 31
0.0
  0
LINE
  5
4AD
  8
0_INFO
 62
     2
 10
-3505.5
 20
-2527.179874915184
 30
0.0
 11
-3518.0
 21
-2527.179874915184
 31
0.0
  0
LINE
  5
4AE
  8
0_INFO
 62
     2
 10
-3518.0
 20
-2527.179874915184
 30
0.0
 11
-3518.0
 21
-2537.679874915184
 31
0.0
  0
LINE
  5
4AF
  8
0_INFO
 62
     2
 10
-3492.0
 20
-2526.179874915184
 30
0.0
 11
-3504.5
 21
-2526.179874915184
 31
0.0
  0
LINE
  5
4B0
  8
0_INFO
 62
     2
 10
-3504.5
 20
-2526.179874915184
 30
0.0
 11
-3504.5
 21
-2515.679874915184
 31
0.0
  0
LINE
  5
4B1
  8
0_INFO
 62
     2
 10
-3504.5
 20
-2515.679874915184
 30
0.0
 11
-3492.0
 21
-2515.679874915184
 31
0.0
  0
LINE
  5
4B2
  8
0_INFO
 62
     2
 10
-3492.0
 20
-2515.679874915184
 30
0.0
 11
-3492.0
 21
-2526.179874915184
 31
0.0
  0
LINE
  5
4B3
  8
0_INFO
 62
     2
 10
-3518.0
 20
-2515.679874915184
 30
0.0
 11
-3505.5
 21
-2515.679874915184
 31
0.0
  0
LINE
  5
4B4
  8
0_INFO
 62
     2
 10
-3505.5
 20
-2515.679874915184
 30
0.0
 11
-3505.5
 21
-2526.179874915184
 31
0.0
  0
LINE
  5
4B5
  8
0_INFO
 62
     2
 10
-3505.5
 20
-2526.179874915184
 30
0.0
 11
-3518.0
 21
-2526.179874915184
 31
0.0
  0
LINE
  5
4B6
  8
0_INFO
 62
     2
 10
-3518.0
 20
-2526.179874915184
 30
0.0
 11
-3518.0
 21
-2515.679874915184
 31
0.0
  0
LINE
  5
4B7
  8
0_INFO
 62
     2
 10
-3492.0
 20
-2503.679874915184
 30
0.0
 11
-3504.5
 21
-2503.679874915184
 31
0.0
  0
LINE
  5
4B8
  8
0_INFO
 62
     2
 10
-3504.5
 20
-2503.679874915184
 30
0.0
 11
-3504.5
 21
-2514.679874915184
 31
0.0
  0
LINE
  5
4B9
  8
0_INFO
 62
     2
 10
-3504.5
 20
-2514.679874915184
 30
0.0
 11
-3492.0
 21
-2514.679874915184
 31
0.0
  0
LINE
  5
4BA
  8
0_INFO
 62
     2
 10
-3492.0
 20
-2514.679874915184
 30
0.0
 11
-3492.0
 21
-2503.679874915184
 31
0.0
  0
LINE
  5
4BB
  8
0_INFO
 62
     2
 10
-3518.0
 20
-2514.679874915184
 30
0.0
 11
-3505.5
 21
-2514.679874915184
 31
0.0
  0
LINE
  5
4BC
  8
0_INFO
 62
     2
 10
-3505.5
 20
-2514.679874915184
 30
0.0
 11
-3505.5
 21
-2503.679874915184
 31
0.0
  0
LINE
  5
4BD
  8
0_INFO
 62
     2
 10
-3505.5
 20
-2503.679874915184
 30
0.0
 11
-3518.0
 21
-2503.679874915184
 31
0.0
  0
LINE
  5
4BE
  8
0_INFO
 62
     2
 10
-3518.0
 20
-2503.679874915184
 30
0.0
 11
-3518.0
 21
-2514.679874915184
 31
0.0
  0
LINE
  5
4BF
  8
0_INFO
 62
     2
 10
-3558.0
 20
-2549.679874915184
 30
0.0
 11
-3545.5
 21
-2549.679874915184
 31
0.0
  0
LINE
  5
4C0
  8
0_INFO
 62
     2
 10
-3545.5
 20
-2549.679874915184
 30
0.0
 11
-3545.5
 21
-2538.679874915184
 31
0.0
  0
LINE
  5
4C1
  8
0_INFO
 62
     2
 10
-3545.5
 20
-2538.679874915184
 30
0.0
 11
-3558.0
 21
-2538.679874915184
 31
0.0
  0
LINE
  5
4C2
  8
0_INFO
 62
     2
 10
-3558.0
 20
-2538.679874915184
 30
0.0
 11
-3558.0
 21
-2549.679874915184
 31
0.0
  0
LINE
  5
4C3
  8
0_INFO
 62
     2
 10
-3532.0
 20
-2538.679874915184
 30
0.0
 11
-3544.5
 21
-2538.679874915184
 31
0.0
  0
LINE
  5
4C4
  8
0_INFO
 62
     2
 10
-3544.5
 20
-2538.679874915184
 30
0.0
 11
-3544.5
 21
-2549.679874915184
 31
0.0
  0
LINE
  5
4C5
  8
0_INFO
 62
     2
 10
-3544.5
 20
-2549.679874915184
 30
0.0
 11
-3532.0
 21
-2549.679874915184
 31
0.0
  0
LINE
  5
4C6
  8
0_INFO
 62
     2
 10
-3532.0
 20
-2549.679874915184
 30
0.0
 11
-3532.0
 21
-2538.679874915184
 31
0.0
  0
LINE
  5
4C7
  8
0_INFO
 62
     2
 10
-3558.0
 20
-2527.179874915184
 30
0.0
 11
-3545.5
 21
-2527.179874915184
 31
0.0
  0
LINE
  5
4C8
  8
0_INFO
 62
     2
 10
-3545.5
 20
-2527.179874915184
 30
0.0
 11
-3545.5
 21
-2537.679874915184
 31
0.0
  0
LINE
  5
4C9
  8
0_INFO
 62
     2
 10
-3545.5
 20
-2537.679874915184
 30
0.0
 11
-3558.0
 21
-2537.679874915184
 31
0.0
  0
LINE
  5
4CA
  8
0_INFO
 62
     2
 10
-3558.0
 20
-2537.679874915184
 30
0.0
 11
-3558.0
 21
-2527.179874915184
 31
0.0
  0
LINE
  5
4CB
  8
0_INFO
 62
     2
 10
-3532.0
 20
-2537.679874915184
 30
0.0
 11
-3544.5
 21
-2537.679874915184
 31
0.0
  0
LINE
  5
4CC
  8
0_INFO
 62
     2
 10
-3544.5
 20
-2537.679874915184
 30
0.0
 11
-3544.5
 21
-2527.179874915184
 31
0.0
  0
LINE
  5
4CD
  8
0_INFO
 62
     2
 10
-3544.5
 20
-2527.179874915184
 30
0.0
 11
-3532.0
 21
-2527.179874915184
 31
0.0
  0
LINE
  5
4CE
  8
0_INFO
 62
     2
 10
-3532.0
 20
-2527.179874915184
 30
0.0
 11
-3532.0
 21
-2537.679874915184
 31
0.0
  0
LINE
  5
4CF
  8
0_INFO
 62
     2
 10
-3558.0
 20
-2526.179874915184
 30
0.0
 11
-3545.5
 21
-2526.179874915184
 31
0.0
  0
LINE
  5
4D0
  8
0_INFO
 62
     2
 10
-3545.5
 20
-2526.179874915184
 30
0.0
 11
-3545.5
 21
-2515.679874915184
 31
0.0
  0
LINE
  5
4D1
  8
0_INFO
 62
     2
 10
-3545.5
 20
-2515.679874915184
 30
0.0
 11
-3558.0
 21
-2515.679874915184
 31
0.0
  0
LINE
  5
4D2
  8
0_INFO
 62
     2
 10
-3558.0
 20
-2515.679874915184
 30
0.0
 11
-3558.0
 21
-2526.179874915184
 31
0.0
  0
LINE
  5
4D3
  8
0_INFO
 62
     2
 10
-3532.0
 20
-2515.679874915184
 30
0.0
 11
-3544.5
 21
-2515.679874915184
 31
0.0
  0
LINE
  5
4D4
  8
0_INFO
 62
     2
 10
-3544.5
 20
-2515.679874915184
 30
0.0
 11
-3544.5
 21
-2526.179874915184
 31
0.0
  0
LINE
  5
4D5
  8
0_INFO
 62
     2
 10
-3544.5
 20
-2526.179874915184
 30
0.0
 11
-3532.0
 21
-2526.179874915184
 31
0.0
  0
LINE
  5
4D6
  8
0_INFO
 62
     2
 10
-3532.0
 20
-2526.179874915184
 30
0.0
 11
-3532.0
 21
-2515.679874915184
 31
0.0
  0
LINE
  5
4D7
  8
0_INFO
 62
     2
 10
-3558.0
 20
-2503.679874915184
 30
0.0
 11
-3545.5
 21
-2503.679874915184
 31
0.0
  0
LINE
  5
4D8
  8
0_INFO
 62
     2
 10
-3545.5
 20
-2503.679874915184
 30
0.0
 11
-3545.5
 21
-2514.679874915184
 31
0.0
  0
LINE
  5
4D9
  8
0_INFO
 62
     2
 10
-3545.5
 20
-2514.679874915184
 30
0.0
 11
-3558.0
 21
-2514.679874915184
 31
0.0
  0
LINE
  5
4DA
  8
0_INFO
 62
     2
 10
-3558.0
 20
-2514.679874915184
 30
0.0
 11
-3558.0
 21
-2503.679874915184
 31
0.0
  0
LINE
  5
4DB
  8
0_INFO
 62
     2
 10
-3532.0
 20
-2514.679874915184
 30
0.0
 11
-3544.5
 21
-2514.679874915184
 31
0.0
  0
LINE
  5
4DC
  8
0_INFO
 62
     2
 10
-3544.5
 20
-2514.679874915184
 30
0.0
 11
-3544.5
 21
-2503.679874915184
 31
0.0
  0
LINE
  5
4DD
  8
0_INFO
 62
     2
 10
-3544.5
 20
-2503.679874915184
 30
0.0
 11
-3532.0
 21
-2503.679874915184
 31
0.0
  0
LINE
  5
4DE
  8
0_INFO
 62
     2
 10
-3532.0
 20
-2503.679874915184
 30
0.0
 11
-3532.0
 21
-2514.679874915184
 31
0.0
  0
LINE
  5
4DF
  8
0_INFO
 62
     1
 10
-3566.0
 20
-2551.679874915185
 30
0.0
 11
-3566.0
 21
-2553.679874915185
 31
0.0
  0
LINE
  5
4E0
  8
0_INFO
 62
     1
 10
-3566.0
 20
-2553.679874915185
 30
0.0
 11
-3644.0
 21
-2553.679874915184
 31
0.0
  0
LINE
  5
4E1
  8
0_INFO
 62
     1
 10
-3644.0
 20
-2553.679874915184
 30
0.0
 11
-3644.0
 21
-2551.679874915184
 31
0.0
  0
LINE
  5
4E2
  8
0_INFO
 62
     1
 10
-3644.0
 20
-2551.679874915184
 30
0.0
 11
-3566.0
 21
-2551.679874915185
 31
0.0
  0
LINE
  5
4E3
  8
0_INFO
 62
     2
 10
-3572.0
 20
-2549.679874915184
 30
0.0
 11
-3584.5
 21
-2549.679874915184
 31
0.0
  0
LINE
  5
4E4
  8
0_INFO
 62
     2
 10
-3584.5
 20
-2549.679874915184
 30
0.0
 11
-3584.5
 21
-2538.679874915184
 31
0.0
  0
LINE
  5
4E5
  8
0_INFO
 62
     2
 10
-3584.5
 20
-2538.679874915184
 30
0.0
 11
-3572.0
 21
-2538.679874915184
 31
0.0
  0
LINE
  5
4E6
  8
0_INFO
 62
     2
 10
-3572.0
 20
-2538.679874915184
 30
0.0
 11
-3572.0
 21
-2549.679874915184
 31
0.0
  0
LINE
  5
4E7
  8
0_INFO
 62
     2
 10
-3598.0
 20
-2538.679874915184
 30
0.0
 11
-3585.5
 21
-2538.679874915184
 31
0.0
  0
LINE
  5
4E8
  8
0_INFO
 62
     2
 10
-3585.5
 20
-2538.679874915184
 30
0.0
 11
-3585.5
 21
-2549.679874915184
 31
0.0
  0
LINE
  5
4E9
  8
0_INFO
 62
     2
 10
-3585.5
 20
-2549.679874915184
 30
0.0
 11
-3598.0
 21
-2549.679874915184
 31
0.0
  0
LINE
  5
4EA
  8
0_INFO
 62
     2
 10
-3598.0
 20
-2549.679874915184
 30
0.0
 11
-3598.0
 21
-2538.679874915184
 31
0.0
  0
LINE
  5
4EB
  8
0_INFO
 62
     2
 10
-3572.0
 20
-2527.179874915184
 30
0.0
 11
-3584.5
 21
-2527.179874915184
 31
0.0
  0
LINE
  5
4EC
  8
0_INFO
 62
     2
 10
-3584.5
 20
-2527.179874915184
 30
0.0
 11
-3584.5
 21
-2537.679874915184
 31
0.0
  0
LINE
  5
4ED
  8
0_INFO
 62
     2
 10
-3584.5
 20
-2537.679874915184
 30
0.0
 11
-3572.0
 21
-2537.679874915184
 31
0.0
  0
LINE
  5
4EE
  8
0_INFO
 62
     2
 10
-3572.0
 20
-2537.679874915184
 30
0.0
 11
-3572.0
 21
-2527.179874915184
 31
0.0
  0
LINE
  5
4EF
  8
0_INFO
 62
     2
 10
-3598.0
 20
-2537.679874915184
 30
0.0
 11
-3585.5
 21
-2537.679874915184
 31
0.0
  0
LINE
  5
4F0
  8
0_INFO
 62
     2
 10
-3585.5
 20
-2537.679874915184
 30
0.0
 11
-3585.5
 21
-2527.179874915184
 31
0.0
  0
LINE
  5
4F1
  8
0_INFO
 62
     2
 10
-3585.5
 20
-2527.179874915184
 30
0.0
 11
-3598.0
 21
-2527.179874915184
 31
0.0
  0
LINE
  5
4F2
  8
0_INFO
 62
     2
 10
-3598.0
 20
-2527.179874915184
 30
0.0
 11
-3598.0
 21
-2537.679874915184
 31
0.0
  0
LINE
  5
4F3
  8
0_INFO
 62
     2
 10
-3572.0
 20
-2526.179874915184
 30
0.0
 11
-3584.5
 21
-2526.179874915184
 31
0.0
  0
LINE
  5
4F4
  8
0_INFO
 62
     2
 10
-3584.5
 20
-2526.179874915184
 30
0.0
 11
-3584.5
 21
-2515.679874915184
 31
0.0
  0
LINE
  5
4F5
  8
0_INFO
 62
     2
 10
-3584.5
 20
-2515.679874915184
 30
0.0
 11
-3572.0
 21
-2515.679874915184
 31
0.0
  0
LINE
  5
4F6
  8
0_INFO
 62
     2
 10
-3572.0
 20
-2515.679874915184
 30
0.0
 11
-3572.0
 21
-2526.179874915184
 31
0.0
  0
LINE
  5
4F7
  8
0_INFO
 62
     2
 10
-3598.0
 20
-2515.679874915184
 30
0.0
 11
-3585.5
 21
-2515.679874915184
 31
0.0
  0
LINE
  5
4F8
  8
0_INFO
 62
     2
 10
-3585.5
 20
-2515.679874915184
 30
0.0
 11
-3585.5
 21
-2526.179874915184
 31
0.0
  0
LINE
  5
4F9
  8
0_INFO
 62
     2
 10
-3585.5
 20
-2526.179874915184
 30
0.0
 11
-3598.0
 21
-2526.179874915184
 31
0.0
  0
LINE
  5
4FA
  8
0_INFO
 62
     2
 10
-3598.0
 20
-2526.179874915184
 30
0.0
 11
-3598.0
 21
-2515.679874915184
 31
0.0
  0
LINE
  5
4FB
  8
0_INFO
 62
     2
 10
-3572.0
 20
-2503.679874915184
 30
0.0
 11
-3584.5
 21
-2503.679874915184
 31
0.0
  0
LINE
  5
4FC
  8
0_INFO
 62
     2
 10
-3584.5
 20
-2503.679874915184
 30
0.0
 11
-3584.5
 21
-2514.679874915184
 31
0.0
  0
LINE
  5
4FD
  8
0_INFO
 62
     2
 10
-3584.5
 20
-2514.679874915184
 30
0.0
 11
-3572.0
 21
-2514.679874915184
 31
0.0
  0
LINE
  5
4FE
  8
0_INFO
 62
     2
 10
-3572.0
 20
-2514.679874915184
 30
0.0
 11
-3572.0
 21
-2503.679874915184
 31
0.0
  0
LINE
  5
4FF
  8
0_INFO
 62
     2
 10
-3598.0
 20
-2514.679874915184
 30
0.0
 11
-3585.5
 21
-2514.679874915184
 31
0.0
  0
LINE
  5
500
  8
0_INFO
 62
     2
 10
-3585.5
 20
-2514.679874915184
 30
0.0
 11
-3585.5
 21
-2503.679874915184
 31
0.0
  0
LINE
  5
501
  8
0_INFO
 62
     2
 10
-3585.5
 20
-2503.679874915184
 30
0.0
 11
-3598.0
 21
-2503.679874915184
 31
0.0
  0
LINE
  5
502
  8
0_INFO
 62
     2
 10
-3598.0
 20
-2503.679874915184
 30
0.0
 11
-3598.0
 21
-2514.679874915184
 31
0.0
  0
LINE
  5
503
  8
0_INFO
 62
     2
 10
-3638.0
 20
-2549.679874915184
 30
0.0
 11
-3625.5
 21
-2549.679874915184
 31
0.0
  0
LINE
  5
504
  8
0_INFO
 62
     2
 10
-3625.5
 20
-2549.679874915184
 30
0.0
 11
-3625.5
 21
-2538.679874915184
 31
0.0
  0
LINE
  5
505
  8
0_INFO
 62
     2
 10
-3625.5
 20
-2538.679874915184
 30
0.0
 11
-3638.0
 21
-2538.679874915184
 31
0.0
  0
LINE
  5
506
  8
0_INFO
 62
     2
 10
-3638.0
 20
-2538.679874915184
 30
0.0
 11
-3638.0
 21
-2549.679874915184
 31
0.0
  0
LINE
  5
507
  8
0_INFO
 62
     2
 10
-3612.0
 20
-2538.679874915184
 30
0.0
 11
-3624.5
 21
-2538.679874915184
 31
0.0
  0
LINE
  5
508
  8
0_INFO
 62
     2
 10
-3624.5
 20
-2538.679874915184
 30
0.0
 11
-3624.5
 21
-2549.679874915184
 31
0.0
  0
LINE
  5
509
  8
0_INFO
 62
     2
 10
-3624.5
 20
-2549.679874915184
 30
0.0
 11
-3612.0
 21
-2549.679874915184
 31
0.0
  0
LINE
  5
50A
  8
0_INFO
 62
     2
 10
-3612.0
 20
-2549.679874915184
 30
0.0
 11
-3612.0
 21
-2538.679874915184
 31
0.0
  0
LINE
  5
50B
  8
0_INFO
 62
     2
 10
-3638.0
 20
-2527.179874915184
 30
0.0
 11
-3625.5
 21
-2527.179874915184
 31
0.0
  0
LINE
  5
50C
  8
0_INFO
 62
     2
 10
-3625.5
 20
-2527.179874915184
 30
0.0
 11
-3625.5
 21
-2537.679874915184
 31
0.0
  0
LINE
  5
50D
  8
0_INFO
 62
     2
 10
-3625.5
 20
-2537.679874915184
 30
0.0
 11
-3638.0
 21
-2537.679874915184
 31
0.0
  0
LINE
  5
50E
  8
0_INFO
 62
     2
 10
-3638.0
 20
-2537.679874915184
 30
0.0
 11
-3638.0
 21
-2527.179874915184
 31
0.0
  0
LINE
  5
50F
  8
0_INFO
 62
     2
 10
-3612.0
 20
-2537.679874915184
 30
0.0
 11
-3624.5
 21
-2537.679874915184
 31
0.0
  0
LINE
  5
510
  8
0_INFO
 62
     2
 10
-3624.5
 20
-2537.679874915184
 30
0.0
 11
-3624.5
 21
-2527.179874915184
 31
0.0
  0
LINE
  5
511
  8
0_INFO
 62
     2
 10
-3624.5
 20
-2527.179874915184
 30
0.0
 11
-3612.0
 21
-2527.179874915184
 31
0.0
  0
LINE
  5
512
  8
0_INFO
 62
     2
 10
-3612.0
 20
-2527.179874915184
 30
0.0
 11
-3612.0
 21
-2537.679874915184
 31
0.0
  0
LINE
  5
513
  8
0_INFO
 62
     2
 10
-3638.0
 20
-2526.179874915184
 30
0.0
 11
-3625.5
 21
-2526.179874915184
 31
0.0
  0
LINE
  5
514
  8
0_INFO
 62
     2
 10
-3625.5
 20
-2526.179874915184
 30
0.0
 11
-3625.5
 21
-2515.679874915184
 31
0.0
  0
LINE
  5
515
  8
0_INFO
 62
     2
 10
-3625.5
 20
-2515.679874915184
 30
0.0
 11
-3638.0
 21
-2515.679874915184
 31
0.0
  0
LINE
  5
516
  8
0_INFO
 62
     2
 10
-3638.0
 20
-2515.679874915184
 30
0.0
 11
-3638.0
 21
-2526.179874915184
 31
0.0
  0
LINE
  5
517
  8
0_INFO
 62
     2
 10
-3612.0
 20
-2515.679874915184
 30
0.0
 11
-3624.5
 21
-2515.679874915184
 31
0.0
  0
LINE
  5
518
  8
0_INFO
 62
     2
 10
-3624.5
 20
-2515.679874915184
 30
0.0
 11
-3624.5
 21
-2526.179874915184
 31
0.0
  0
LINE
  5
519
  8
0_INFO
 62
     2
 10
-3624.5
 20
-2526.179874915184
 30
0.0
 11
-3612.0
 21
-2526.179874915184
 31
0.0
  0
LINE
  5
51A
  8
0_INFO
 62
     2
 10
-3612.0
 20
-2526.179874915184
 30
0.0
 11
-3612.0
 21
-2515.679874915184
 31
0.0
  0
LINE
  5
51B
  8
0_INFO
 62
     2
 10
-3638.0
 20
-2503.679874915184
 30
0.0
 11
-3625.5
 21
-2503.679874915184
 31
0.0
  0
LINE
  5
51C
  8
0_INFO
 62
     2
 10
-3625.5
 20
-2503.679874915184
 30
0.0
 11
-3625.5
 21
-2514.679874915184
 31
0.0
  0
LINE
  5
51D
  8
0_INFO
 62
     2
 10
-3625.5
 20
-2514.679874915184
 30
0.0
 11
-3638.0
 21
-2514.679874915184
 31
0.0
  0
LINE
  5
51E
  8
0_INFO
 62
     2
 10
-3638.0
 20
-2514.679874915184
 30
0.0
 11
-3638.0
 21
-2503.679874915184
 31
0.0
  0
LINE
  5
51F
  8
0_INFO
 62
     2
 10
-3612.0
 20
-2514.679874915184
 30
0.0
 11
-3624.5
 21
-2514.679874915184
 31
0.0
  0
LINE
  5
520
  8
0_INFO
 62
     2
 10
-3624.5
 20
-2514.679874915184
 30
0.0
 11
-3624.5
 21
-2503.679874915184
 31
0.0
  0
LINE
  5
521
  8
0_INFO
 62
     2
 10
-3624.5
 20
-2503.679874915184
 30
0.0
 11
-3612.0
 21
-2503.679874915184
 31
0.0
  0
LINE
  5
522
  8
0_INFO
 62
     2
 10
-3612.0
 20
-2503.679874915184
 30
0.0
 11
-3612.0
 21
-2514.679874915184
 31
0.0
  0
LINE
  5
523
  8
0_INFO
 62
     1
 10
-3666.0
 20
-2551.679874915185
 30
0.0
 11
-3666.0
 21
-2553.679874915185
 31
0.0
  0
LINE
  5
524
  8
0_INFO
 62
     1
 10
-3666.0
 20
-2553.679874915185
 30
0.0
 11
-3744.0
 21
-2553.679874915184
 31
0.0
  0
LINE
  5
525
  8
0_INFO
 62
     1
 10
-3744.0
 20
-2553.679874915184
 30
0.0
 11
-3744.0
 21
-2551.679874915184
 31
0.0
  0
LINE
  5
526
  8
0_INFO
 62
     1
 10
-3744.0
 20
-2551.679874915184
 30
0.0
 11
-3666.0
 21
-2551.679874915185
 31
0.0
  0
LINE
  5
527
  8
0_INFO
 62
     2
 10
-3672.0
 20
-2549.679874915184
 30
0.0
 11
-3684.5
 21
-2549.679874915184
 31
0.0
  0
LINE
  5
528
  8
0_INFO
 62
     2
 10
-3684.5
 20
-2549.679874915184
 30
0.0
 11
-3684.5
 21
-2538.679874915184
 31
0.0
  0
LINE
  5
529
  8
0_INFO
 62
     2
 10
-3684.5
 20
-2538.679874915184
 30
0.0
 11
-3672.0
 21
-2538.679874915184
 31
0.0
  0
LINE
  5
52A
  8
0_INFO
 62
     2
 10
-3672.0
 20
-2538.679874915184
 30
0.0
 11
-3672.0
 21
-2549.679874915184
 31
0.0
  0
LINE
  5
52B
  8
0_INFO
 62
     2
 10
-3698.0
 20
-2538.679874915184
 30
0.0
 11
-3685.5
 21
-2538.679874915184
 31
0.0
  0
LINE
  5
52C
  8
0_INFO
 62
     2
 10
-3685.5
 20
-2538.679874915184
 30
0.0
 11
-3685.5
 21
-2549.679874915184
 31
0.0
  0
LINE
  5
52D
  8
0_INFO
 62
     2
 10
-3685.5
 20
-2549.679874915184
 30
0.0
 11
-3698.0
 21
-2549.679874915184
 31
0.0
  0
LINE
  5
52E
  8
0_INFO
 62
     2
 10
-3698.0
 20
-2549.679874915184
 30
0.0
 11
-3698.0
 21
-2538.679874915184
 31
0.0
  0
LINE
  5
52F
  8
0_INFO
 62
     2
 10
-3672.0
 20
-2527.179874915184
 30
0.0
 11
-3684.5
 21
-2527.179874915184
 31
0.0
  0
LINE
  5
530
  8
0_INFO
 62
     2
 10
-3684.5
 20
-2527.179874915184
 30
0.0
 11
-3684.5
 21
-2537.679874915184
 31
0.0
  0
LINE
  5
531
  8
0_INFO
 62
     2
 10
-3684.5
 20
-2537.679874915184
 30
0.0
 11
-3672.0
 21
-2537.679874915184
 31
0.0
  0
LINE
  5
532
  8
0_INFO
 62
     2
 10
-3672.0
 20
-2537.679874915184
 30
0.0
 11
-3672.0
 21
-2527.179874915184
 31
0.0
  0
LINE
  5
533
  8
0_INFO
 62
     2
 10
-3698.0
 20
-2537.679874915184
 30
0.0
 11
-3685.5
 21
-2537.679874915184
 31
0.0
  0
LINE
  5
534
  8
0_INFO
 62
     2
 10
-3685.5
 20
-2537.679874915184
 30
0.0
 11
-3685.5
 21
-2527.179874915184
 31
0.0
  0
LINE
  5
535
  8
0_INFO
 62
     2
 10
-3685.5
 20
-2527.179874915184
 30
0.0
 11
-3698.0
 21
-2527.179874915184
 31
0.0
  0
LINE
  5
536
  8
0_INFO
 62
     2
 10
-3698.0
 20
-2527.179874915184
 30
0.0
 11
-3698.0
 21
-2537.679874915184
 31
0.0
  0
LINE
  5
537
  8
0_INFO
 62
     2
 10
-3672.0
 20
-2526.179874915184
 30
0.0
 11
-3684.5
 21
-2526.179874915184
 31
0.0
  0
LINE
  5
538
  8
0_INFO
 62
     2
 10
-3684.5
 20
-2526.179874915184
 30
0.0
 11
-3684.5
 21
-2515.679874915184
 31
0.0
  0
LINE
  5
539
  8
0_INFO
 62
     2
 10
-3684.5
 20
-2515.679874915184
 30
0.0
 11
-3672.0
 21
-2515.679874915184
 31
0.0
  0
LINE
  5
53A
  8
0_INFO
 62
     2
 10
-3672.0
 20
-2515.679874915184
 30
0.0
 11
-3672.0
 21
-2526.179874915184
 31
0.0
  0
LINE
  5
53B
  8
0_INFO
 62
     2
 10
-3698.0
 20
-2515.679874915184
 30
0.0
 11
-3685.5
 21
-2515.679874915184
 31
0.0
  0
LINE
  5
53C
  8
0_INFO
 62
     2
 10
-3685.5
 20
-2515.679874915184
 30
0.0
 11
-3685.5
 21
-2526.179874915184
 31
0.0
  0
LINE
  5
53D
  8
0_INFO
 62
     2
 10
-3685.5
 20
-2526.179874915184
 30
0.0
 11
-3698.0
 21
-2526.179874915184
 31
0.0
  0
LINE
  5
53E
  8
0_INFO
 62
     2
 10
-3698.0
 20
-2526.179874915184
 30
0.0
 11
-3698.0
 21
-2515.679874915184
 31
0.0
  0
LINE
  5
53F
  8
0_INFO
 62
     2
 10
-3672.0
 20
-2503.679874915184
 30
0.0
 11
-3684.5
 21
-2503.679874915184
 31
0.0
  0
LINE
  5
540
  8
0_INFO
 62
     2
 10
-3684.5
 20
-2503.679874915184
 30
0.0
 11
-3684.5
 21
-2514.679874915184
 31
0.0
  0
LINE
  5
541
  8
0_INFO
 62
     2
 10
-3684.5
 20
-2514.679874915184
 30
0.0
 11
-3672.0
 21
-2514.679874915184
 31
0.0
  0
LINE
  5
542
  8
0_INFO
 62
     2
 10
-3672.0
 20
-2514.679874915184
 30
0.0
 11
-3672.0
 21
-2503.679874915184
 31
0.0
  0
LINE
  5
543
  8
0_INFO
 62
     2
 10
-3698.0
 20
-2514.679874915184
 30
0.0
 11
-3685.5
 21
-2514.679874915184
 31
0.0
  0
LINE
  5
544
  8
0_INFO
 62
     2
 10
-3685.5
 20
-2514.679874915184
 30
0.0
 11
-3685.5
 21
-2503.679874915184
 31
0.0
  0
LINE
  5
545
  8
0_INFO
 62
     2
 10
-3685.5
 20
-2503.679874915184
 30
0.0
 11
-3698.0
 21
-2503.679874915184
 31
0.0
  0
LINE
  5
546
  8
0_INFO
 62
     2
 10
-3698.0
 20
-2503.679874915184
 30
0.0
 11
-3698.0
 21
-2514.679874915184
 31
0.0
  0
LINE
  5
547
  8
0_INFO
 62
     2
 10
-3738.0
 20
-2549.679874915184
 30
0.0
 11
-3725.5
 21
-2549.679874915184
 31
0.0
  0
LINE
  5
548
  8
0_INFO
 62
     2
 10
-3725.5
 20
-2549.679874915184
 30
0.0
 11
-3725.5
 21
-2538.679874915184
 31
0.0
  0
LINE
  5
549
  8
0_INFO
 62
     2
 10
-3725.5
 20
-2538.679874915184
 30
0.0
 11
-3738.0
 21
-2538.679874915184
 31
0.0
  0
LINE
  5
54A
  8
0_INFO
 62
     2
 10
-3738.0
 20
-2538.679874915184
 30
0.0
 11
-3738.0
 21
-2549.679874915184
 31
0.0
  0
LINE
  5
54B
  8
0_INFO
 62
     2
 10
-3712.0
 20
-2538.679874915184
 30
0.0
 11
-3724.5
 21
-2538.679874915184
 31
0.0
  0
LINE
  5
54C
  8
0_INFO
 62
     2
 10
-3724.5
 20
-2538.679874915184
 30
0.0
 11
-3724.5
 21
-2549.679874915184
 31
0.0
  0
LINE
  5
54D
  8
0_INFO
 62
     2
 10
-3724.5
 20
-2549.679874915184
 30
0.0
 11
-3712.0
 21
-2549.679874915184
 31
0.0
  0
LINE
  5
54E
  8
0_INFO
 62
     2
 10
-3712.0
 20
-2549.679874915184
 30
0.0
 11
-3712.0
 21
-2538.679874915184
 31
0.0
  0
LINE
  5
54F
  8
0_INFO
 62
     2
 10
-3738.0
 20
-2527.179874915184
 30
0.0
 11
-3725.5
 21
-2527.179874915184
 31
0.0
  0
LINE
  5
550
  8
0_INFO
 62
     2
 10
-3725.5
 20
-2527.179874915184
 30
0.0
 11
-3725.5
 21
-2537.679874915184
 31
0.0
  0
LINE
  5
551
  8
0_INFO
 62
     2
 10
-3725.5
 20
-2537.679874915184
 30
0.0
 11
-3738.0
 21
-2537.679874915184
 31
0.0
  0
LINE
  5
552
  8
0_INFO
 62
     2
 10
-3738.0
 20
-2537.679874915184
 30
0.0
 11
-3738.0
 21
-2527.179874915184
 31
0.0
  0
LINE
  5
553
  8
0_INFO
 62
     2
 10
-3712.0
 20
-2537.679874915184
 30
0.0
 11
-3724.5
 21
-2537.679874915184
 31
0.0
  0
LINE
  5
554
  8
0_INFO
 62
     2
 10
-3724.5
 20
-2537.679874915184
 30
0.0
 11
-3724.5
 21
-2527.179874915184
 31
0.0
  0
LINE
  5
555
  8
0_INFO
 62
     2
 10
-3724.5
 20
-2527.179874915184
 30
0.0
 11
-3712.0
 21
-2527.179874915184
 31
0.0
  0
LINE
  5
556
  8
0_INFO
 62
     2
 10
-3712.0
 20
-2527.179874915184
 30
0.0
 11
-3712.0
 21
-2537.679874915184
 31
0.0
  0
LINE
  5
557
  8
0_INFO
 62
     2
 10
-3738.0
 20
-2526.179874915184
 30
0.0
 11
-3725.5
 21
-2526.179874915184
 31
0.0
  0
LINE
  5
558
  8
0_INFO
 62
     2
 10
-3725.5
 20
-2526.179874915184
 30
0.0
 11
-3725.5
 21
-2515.679874915184
 31
0.0
  0
LINE
  5
559
  8
0_INFO
 62
     2
 10
-3725.5
 20
-2515.679874915184
 30
0.0
 11
-3738.0
 21
-2515.679874915184
 31
0.0
  0
LINE
  5
55A
  8
0_INFO
 62
     2
 10
-3738.0
 20
-2515.679874915184
 30
0.0
 11
-3738.0
 21
-2526.179874915184
 31
0.0
  0
LINE
  5
55B
  8
0_INFO
 62
     2
 10
-3712.0
 20
-2515.679874915184
 30
0.0
 11
-3724.5
 21
-2515.679874915184
 31
0.0
  0
LINE
  5
55C
  8
0_INFO
 62
     2
 10
-3724.5
 20
-2515.679874915184
 30
0.0
 11
-3724.5
 21
-2526.179874915184
 31
0.0
  0
LINE
  5
55D
  8
0_INFO
 62
     2
 10
-3724.5
 20
-2526.179874915184
 30
0.0
 11
-3712.0
 21
-2526.179874915184
 31
0.0
  0
LINE
  5
55E
  8
0_INFO
 62
     2
 10
-3712.0
 20
-2526.179874915184
 30
0.0
 11
-3712.0
 21
-2515.679874915184
 31
0.0
  0
LINE
  5
55F
  8
0_INFO
 62
     2
 10
-3738.0
 20
-2503.679874915184
 30
0.0
 11
-3725.5
 21
-2503.679874915184
 31
0.0
  0
LINE
  5
560
  8
0_INFO
 62
     2
 10
-3725.5
 20
-2503.679874915184
 30
0.0
 11
-3725.5
 21
-2514.679874915184
 31
0.0
  0
LINE
  5
561
  8
0_INFO
 62
     2
 10
-3725.5
 20
-2514.679874915184
 30
0.0
 11
-3738.0
 21
-2514.679874915184
 31
0.0
  0
LINE
  5
562
  8
0_INFO
 62
     2
 10
-3738.0
 20
-2514.679874915184
 30
0.0
 11
-3738.0
 21
-2503.679874915184
 31
0.0
  0
LINE
  5
563
  8
0_INFO
 62
     2
 10
-3712.0
 20
-2514.679874915184
 30
0.0
 11
-3724.5
 21
-2514.679874915184
 31
0.0
  0
LINE
  5
564
  8
0_INFO
 62
     2
 10
-3724.5
 20
-2514.679874915184
 30
0.0
 11
-3724.5
 21
-2503.679874915184
 31
0.0
  0
LINE
  5
565
  8
0_INFO
 62
     2
 10
-3724.5
 20
-2503.679874915184
 30
0.0
 11
-3712.0
 21
-2503.679874915184
 31
0.0
  0
LINE
  5
566
  8
0_INFO
 62
     2
 10
-3712.0
 20
-2503.679874915184
 30
0.0
 11
-3712.0
 21
-2514.679874915184
 31
0.0
  0
LINE
  5
567
  8
0_INFO
 62
     1
 10
-3766.0
 20
-2551.679874915185
 30
0.0
 11
-3766.0
 21
-2553.679874915185
 31
0.0
  0
LINE
  5
568
  8
0_INFO
 62
     1
 10
-3766.0
 20
-2553.679874915185
 30
0.0
 11
-3844.0
 21
-2553.679874915184
 31
0.0
  0
LINE
  5
569
  8
0_INFO
 62
     1
 10
-3844.0
 20
-2553.679874915184
 30
0.0
 11
-3844.0
 21
-2551.679874915184
 31
0.0
  0
LINE
  5
56A
  8
0_INFO
 62
     1
 10
-3844.0
 20
-2551.679874915184
 30
0.0
 11
-3766.0
 21
-2551.679874915185
 31
0.0
  0
LINE
  5
56B
  8
0_INFO
 62
     2
 10
-3772.0
 20
-2549.679874915184
 30
0.0
 11
-3784.5
 21
-2549.679874915184
 31
0.0
  0
LINE
  5
56C
  8
0_INFO
 62
     2
 10
-3784.5
 20
-2549.679874915184
 30
0.0
 11
-3784.5
 21
-2538.679874915184
 31
0.0
  0
LINE
  5
56D
  8
0_INFO
 62
     2
 10
-3784.5
 20
-2538.679874915184
 30
0.0
 11
-3772.0
 21
-2538.679874915184
 31
0.0
  0
LINE
  5
56E
  8
0_INFO
 62
     2
 10
-3772.0
 20
-2538.679874915184
 30
0.0
 11
-3772.0
 21
-2549.679874915184
 31
0.0
  0
LINE
  5
56F
  8
0_INFO
 62
     2
 10
-3798.0
 20
-2538.679874915184
 30
0.0
 11
-3785.5
 21
-2538.679874915184
 31
0.0
  0
LINE
  5
570
  8
0_INFO
 62
     2
 10
-3785.5
 20
-2538.679874915184
 30
0.0
 11
-3785.5
 21
-2549.679874915184
 31
0.0
  0
LINE
  5
571
  8
0_INFO
 62
     2
 10
-3785.5
 20
-2549.679874915184
 30
0.0
 11
-3798.0
 21
-2549.679874915184
 31
0.0
  0
LINE
  5
572
  8
0_INFO
 62
     2
 10
-3798.0
 20
-2549.679874915184
 30
0.0
 11
-3798.0
 21
-2538.679874915184
 31
0.0
  0
LINE
  5
573
  8
0_INFO
 62
     2
 10
-3772.0
 20
-2527.179874915184
 30
0.0
 11
-3784.5
 21
-2527.179874915184
 31
0.0
  0
LINE
  5
574
  8
0_INFO
 62
     2
 10
-3784.5
 20
-2527.179874915184
 30
0.0
 11
-3784.5
 21
-2537.679874915184
 31
0.0
  0
LINE
  5
575
  8
0_INFO
 62
     2
 10
-3784.5
 20
-2537.679874915184
 30
0.0
 11
-3772.0
 21
-2537.679874915184
 31
0.0
  0
LINE
  5
576
  8
0_INFO
 62
     2
 10
-3772.0
 20
-2537.679874915184
 30
0.0
 11
-3772.0
 21
-2527.179874915184
 31
0.0
  0
LINE
  5
577
  8
0_INFO
 62
     2
 10
-3798.0
 20
-2537.679874915184
 30
0.0
 11
-3785.5
 21
-2537.679874915184
 31
0.0
  0
LINE
  5
578
  8
0_INFO
 62
     2
 10
-3785.5
 20
-2537.679874915184
 30
0.0
 11
-3785.5
 21
-2527.179874915184
 31
0.0
  0
LINE
  5
579
  8
0_INFO
 62
     2
 10
-3785.5
 20
-2527.179874915184
 30
0.0
 11
-3798.0
 21
-2527.179874915184
 31
0.0
  0
LINE
  5
57A
  8
0_INFO
 62
     2
 10
-3798.0
 20
-2527.179874915184
 30
0.0
 11
-3798.0
 21
-2537.679874915184
 31
0.0
  0
LINE
  5
57B
  8
0_INFO
 62
     2
 10
-3772.0
 20
-2526.179874915184
 30
0.0
 11
-3784.5
 21
-2526.179874915184
 31
0.0
  0
LINE
  5
57C
  8
0_INFO
 62
     2
 10
-3784.5
 20
-2526.179874915184
 30
0.0
 11
-3784.5
 21
-2515.679874915184
 31
0.0
  0
LINE
  5
57D
  8
0_INFO
 62
     2
 10
-3784.5
 20
-2515.679874915184
 30
0.0
 11
-3772.0
 21
-2515.679874915184
 31
0.0
  0
LINE
  5
57E
  8
0_INFO
 62
     2
 10
-3772.0
 20
-2515.679874915184
 30
0.0
 11
-3772.0
 21
-2526.179874915184
 31
0.0
  0
LINE
  5
57F
  8
0_INFO
 62
     2
 10
-3798.0
 20
-2515.679874915184
 30
0.0
 11
-3785.5
 21
-2515.679874915184
 31
0.0
  0
LINE
  5
580
  8
0_INFO
 62
     2
 10
-3785.5
 20
-2515.679874915184
 30
0.0
 11
-3785.5
 21
-2526.179874915184
 31
0.0
  0
LINE
  5
581
  8
0_INFO
 62
     2
 10
-3785.5
 20
-2526.179874915184
 30
0.0
 11
-3798.0
 21
-2526.179874915184
 31
0.0
  0
LINE
  5
582
  8
0_INFO
 62
     2
 10
-3798.0
 20
-2526.179874915184
 30
0.0
 11
-3798.0
 21
-2515.679874915184
 31
0.0
  0
LINE
  5
583
  8
0_INFO
 62
     2
 10
-3772.0
 20
-2503.679874915184
 30
0.0
 11
-3784.5
 21
-2503.679874915184
 31
0.0
  0
LINE
  5
584
  8
0_INFO
 62
     2
 10
-3784.5
 20
-2503.679874915184
 30
0.0
 11
-3784.5
 21
-2514.679874915184
 31
0.0
  0
LINE
  5
585
  8
0_INFO
 62
     2
 10
-3784.5
 20
-2514.679874915184
 30
0.0
 11
-3772.0
 21
-2514.679874915184
 31
0.0
  0
LINE
  5
586
  8
0_INFO
 62
     2
 10
-3772.0
 20
-2514.679874915184
 30
0.0
 11
-3772.0
 21
-2503.679874915184
 31
0.0
  0
LINE
  5
587
  8
0_INFO
 62
     2
 10
-3798.0
 20
-2514.679874915184
 30
0.0
 11
-3785.5
 21
-2514.679874915184
 31
0.0
  0
LINE
  5
588
  8
0_INFO
 62
     2
 10
-3785.5
 20
-2514.679874915184
 30
0.0
 11
-3785.5
 21
-2503.679874915184
 31
0.0
  0
LINE
  5
589
  8
0_INFO
 62
     2
 10
-3785.5
 20
-2503.679874915184
 30
0.0
 11
-3798.0
 21
-2503.679874915184
 31
0.0
  0
LINE
  5
58A
  8
0_INFO
 62
     2
 10
-3798.0
 20
-2503.679874915184
 30
0.0
 11
-3798.0
 21
-2514.679874915184
 31
0.0
  0
LINE
  5
58B
  8
0_INFO
 62
     2
 10
-3838.0
 20
-2549.679874915184
 30
0.0
 11
-3825.5
 21
-2549.679874915184
 31
0.0
  0
LINE
  5
58C
  8
0_INFO
 62
     2
 10
-3825.5
 20
-2549.679874915184
 30
0.0
 11
-3825.5
 21
-2538.679874915184
 31
0.0
  0
LINE
  5
58D
  8
0_INFO
 62
     2
 10
-3825.5
 20
-2538.679874915184
 30
0.0
 11
-3838.0
 21
-2538.679874915184
 31
0.0
  0
LINE
  5
58E
  8
0_INFO
 62
     2
 10
-3838.0
 20
-2538.679874915184
 30
0.0
 11
-3838.0
 21
-2549.679874915184
 31
0.0
  0
LINE
  5
58F
  8
0_INFO
 62
     2
 10
-3812.0
 20
-2538.679874915184
 30
0.0
 11
-3824.5
 21
-2538.679874915184
 31
0.0
  0
LINE
  5
590
  8
0_INFO
 62
     2
 10
-3824.5
 20
-2538.679874915184
 30
0.0
 11
-3824.5
 21
-2549.679874915184
 31
0.0
  0
LINE
  5
591
  8
0_INFO
 62
     2
 10
-3824.5
 20
-2549.679874915184
 30
0.0
 11
-3812.0
 21
-2549.679874915184
 31
0.0
  0
LINE
  5
592
  8
0_INFO
 62
     2
 10
-3812.0
 20
-2549.679874915184
 30
0.0
 11
-3812.0
 21
-2538.679874915184
 31
0.0
  0
LINE
  5
593
  8
0_INFO
 62
     2
 10
-3838.0
 20
-2527.179874915184
 30
0.0
 11
-3825.5
 21
-2527.179874915184
 31
0.0
  0
LINE
  5
594
  8
0_INFO
 62
     2
 10
-3825.5
 20
-2527.179874915184
 30
0.0
 11
-3825.5
 21
-2537.679874915184
 31
0.0
  0
LINE
  5
595
  8
0_INFO
 62
     2
 10
-3825.5
 20
-2537.679874915184
 30
0.0
 11
-3838.0
 21
-2537.679874915184
 31
0.0
  0
LINE
  5
596
  8
0_INFO
 62
     2
 10
-3838.0
 20
-2537.679874915184
 30
0.0
 11
-3838.0
 21
-2527.179874915184
 31
0.0
  0
LINE
  5
597
  8
0_INFO
 62
     2
 10
-3812.0
 20
-2537.679874915184
 30
0.0
 11
-3824.5
 21
-2537.679874915184
 31
0.0
  0
LINE
  5
598
  8
0_INFO
 62
     2
 10
-3824.5
 20
-2537.679874915184
 30
0.0
 11
-3824.5
 21
-2527.179874915184
 31
0.0
  0
LINE
  5
599
  8
0_INFO
 62
     2
 10
-3824.5
 20
-2527.179874915184
 30
0.0
 11
-3812.0
 21
-2527.179874915184
 31
0.0
  0
LINE
  5
59A
  8
0_INFO
 62
     2
 10
-3812.0
 20
-2527.179874915184
 30
0.0
 11
-3812.0
 21
-2537.679874915184
 31
0.0
  0
LINE
  5
59B
  8
0_INFO
 62
     2
 10
-3838.0
 20
-2526.179874915184
 30
0.0
 11
-3825.5
 21
-2526.179874915184
 31
0.0
  0
LINE
  5
59C
  8
0_INFO
 62
     2
 10
-3825.5
 20
-2526.179874915184
 30
0.0
 11
-3825.5
 21
-2515.679874915184
 31
0.0
  0
LINE
  5
59D
  8
0_INFO
 62
     2
 10
-3825.5
 20
-2515.679874915184
 30
0.0
 11
-3838.0
 21
-2515.679874915184
 31
0.0
  0
LINE
  5
59E
  8
0_INFO
 62
     2
 10
-3838.0
 20
-2515.679874915184
 30
0.0
 11
-3838.0
 21
-2526.179874915184
 31
0.0
  0
LINE
  5
59F
  8
0_INFO
 62
     2
 10
-3812.0
 20
-2515.679874915184
 30
0.0
 11
-3824.5
 21
-2515.679874915184
 31
0.0
  0
LINE
  5
5A0
  8
0_INFO
 62
     2
 10
-3824.5
 20
-2515.679874915184
 30
0.0
 11
-3824.5
 21
-2526.179874915184
 31
0.0
  0
LINE
  5
5A1
  8
0_INFO
 62
     2
 10
-3824.5
 20
-2526.179874915184
 30
0.0
 11
-3812.0
 21
-2526.179874915184
 31
0.0
  0
LINE
  5
5A2
  8
0_INFO
 62
     2
 10
-3812.0
 20
-2526.179874915184
 30
0.0
 11
-3812.0
 21
-2515.679874915184
 31
0.0
  0
LINE
  5
5A3
  8
0_INFO
 62
     2
 10
-3838.0
 20
-2503.679874915184
 30
0.0
 11
-3825.5
 21
-2503.679874915184
 31
0.0
  0
LINE
  5
5A4
  8
0_INFO
 62
     2
 10
-3825.5
 20
-2503.679874915184
 30
0.0
 11
-3825.5
 21
-2514.679874915184
 31
0.0
  0
LINE
  5
5A5
  8
0_INFO
 62
     2
 10
-3825.5
 20
-2514.679874915184
 30
0.0
 11
-3838.0
 21
-2514.679874915184
 31
0.0
  0
LINE
  5
5A6
  8
0_INFO
 62
     2
 10
-3838.0
 20
-2514.679874915184
 30
0.0
 11
-3838.0
 21
-2503.679874915184
 31
0.0
  0
LINE
  5
5A7
  8
0_INFO
 62
     2
 10
-3812.0
 20
-2514.679874915184
 30
0.0
 11
-3824.5
 21
-2514.679874915184
 31
0.0
  0
LINE
  5
5A8
  8
0_INFO
 62
     2
 10
-3824.5
 20
-2514.679874915184
 30
0.0
 11
-3824.5
 21
-2503.679874915184
 31
0.0
  0
LINE
  5
5A9
  8
0_INFO
 62
     2
 10
-3824.5
 20
-2503.679874915184
 30
0.0
 11
-3812.0
 21
-2503.679874915184
 31
0.0
  0
LINE
  5
5AA
  8
0_INFO
 62
     2
 10
-3812.0
 20
-2503.679874915184
 30
0.0
 11
-3812.0
 21
-2514.679874915184
 31
0.0
  0
TEXT
  5
5AB
  8
0_INFO
 62
     1
 10
-4562.515819809883
 20
-2500.749920961321
 30
0.0
 40
22.6549
  1
Tiefe Gravur | deep engraving
  7
ARIAL
1001
ACADANNOTATIVE
1000
AnnotativeData
1002
{
1070
     1
1070
     0
1002
}
  0
TEXT
  5
5AC
  8
0_INFO
 62
     3
 10
-4601.972553773663
 20
-2463.17855865706
 30
0.0
 40
22.6549
  1
Leichte Gravur | slight engraving
  7
ARIAL
1001
ACADANNOTATIVE
1000
AnnotativeData
1002
{
1070
     1
1070
     0
1002
}
  0
LINE
  5
5AD
  8
0_INFO
 62
     1
 10
-4141.142584404339
 20
-2474.679874915184
 30
0.0
 11
-3875.0
 21
-2474.679874915184
 31
0.0
  0
LINE
  5
5AE
  8
0_INFO
 62
     3
 10
-4141.142584404338
 20
-2466.483387526108
 30
0.0
 11
-3840.0
 21
-2466.483387526108
 31
0.0
  0
TEXT
  5
5AF
  8
0_INFO
 62
     5
 10
-4309.686724490461
 20
-2397.375046046137
 30
0.0
 40
22.6549
  1
Schnitt | cut
  7
ARIAL
1001
ACADANNOTATIVE
1000
AnnotativeData
1002
{
1070
     1
1070
     0
1002
}
  0
TEXT
  5
5B0
  8
0_INFO
 62
     2
 10
-4612.117863376806
 20
-2427.040388065884
 30
0.0
 40
22.6549
  1
Schnitt für innenliegende Objekte
  7
ARIAL
1001
ACADANNOTATIVE
1000
AnnotativeData
1002
{
1070
     1
1070
     0
1002
}
  0
LINE
  5
5B1
  8
0_INFO
 62
     2
 10
-4141.142584404338
 20
-2433.581631220646
 30
0.0
 11
-3838.0
 21
-2433.581631220646
 31
0.0
  0
LINE
  5
5B2
  8
0_INFO
 62
     5
 10
-4141.142584404338
 20
-2400.679874915184
 30
0.0
 11
-3875.0
 21
-2400.679874915184
 31
0.0
  0
LINE
  5
5B3
  8
0_INFO
 62
     2
 10
-3238.0
 20
-2422.679874915184
 30
0.0
 11
-3212.0
 21
-2422.679874915184
 31
0.0
  0
LINE
  5
5B4
  8
0_INFO
 62
     2
 10
-3212.0
 20
-2422.679874915184
 30
0.0
 11
-3212.0
 21
-2468.679874915184
 31
0.0
  0
LINE
  5
5B5
  8
0_INFO
 62
     2
 10
-3212.0
 20
-2468.679874915184
 30
0.0
 11
-3238.0
 21
-2468.679874915184
 31
0.0
  0
LINE
  5
5B6
  8
0_INFO
 62
     2
 10
-3238.0
 20
-2468.679874915184
 30
0.0
 11
-3238.0
 21
-2422.679874915184
 31
0.0
  0
LINE
  5
5B7
  8
0_INFO
 62
     2
 10
-3278.0
 20
-2422.679874915184
 30
0.0
 11
-3252.0
 21
-2422.679874915184
 31
0.0
  0
LINE
  5
5B8
  8
0_INFO
 62
     2
 10
-3252.0
 20
-2422.679874915184
 30
0.0
 11
-3252.0
 21
-2468.679874915184
 31
0.0
  0
LINE
  5
5B9
  8
0_INFO
 62
     2
 10
-3252.0
 20
-2468.679874915184
 30
0.0
 11
-3278.0
 21
-2468.679874915184
 31
0.0
  0
LINE
  5
5BA
  8
0_INFO
 62
     2
 10
-3278.0
 20
-2468.679874915184
 30
0.0
 11
-3278.0
 21
-2422.679874915184
 31
0.0
  0
LINE
  5
5BB
  8
0_INFO
 62
     2
 10
-3338.0
 20
-2422.679874915184
 30
0.0
 11
-3312.0
 21
-2422.679874915184
 31
0.0
  0
LINE
  5
5BC
  8
0_INFO
 62
     2
 10
-3312.0
 20
-2422.679874915184
 30
0.0
 11
-3312.0
 21
-2468.679874915184
 31
0.0
  0
LINE
  5
5BD
  8
0_INFO
 62
     2
 10
-3312.0
 20
-2468.679874915184
 30
0.0
 11
-3338.0
 21
-2468.679874915184
 31
0.0
  0
LINE
  5
5BE
  8
0_INFO
 62
     2
 10
-3338.0
 20
-2468.679874915184
 30
0.0
 11
-3338.0
 21
-2422.679874915184
 31
0.0
  0
LINE
  5
5BF
  8
0_INFO
 62
     2
 10
-3378.0
 20
-2422.679874915184
 30
0.0
 11
-3352.0
 21
-2422.679874915184
 31
0.0
  0
LINE
  5
5C0
  8
0_INFO
 62
     2
 10
-3352.0
 20
-2422.679874915184
 30
0.0
 11
-3352.0
 21
-2468.679874915184
 31
0.0
  0
LINE
  5
5C1
  8
0_INFO
 62
     2
 10
-3352.0
 20
-2468.679874915184
 30
0.0
 11
-3378.0
 21
-2468.679874915184
 31
0.0
  0
LINE
  5
5C2
  8
0_INFO
 62
     2
 10
-3378.0
 20
-2468.679874915184
 30
0.0
 11
-3378.0
 21
-2422.679874915184
 31
0.0
  0
LINE
  5
5C3
  8
0_INFO
 62
     2
 10
-3438.0
 20
-2422.679874915184
 30
0.0
 11
-3412.0
 21
-2422.679874915184
 31
0.0
  0
LINE
  5
5C4
  8
0_INFO
 62
     2
 10
-3412.0
 20
-2422.679874915184
 30
0.0
 11
-3412.0
 21
-2468.679874915184
 31
0.0
  0
LINE
  5
5C5
  8
0_INFO
 62
     2
 10
-3412.0
 20
-2468.679874915184
 30
0.0
 11
-3438.0
 21
-2468.679874915184
 31
0.0
  0
LINE
  5
5C6
  8
0_INFO
 62
     2
 10
-3438.0
 20
-2468.679874915184
 30
0.0
 11
-3438.0
 21
-2422.679874915184
 31
0.0
  0
LINE
  5
5C7
  8
0_INFO
 62
     2
 10
-3478.0
 20
-2422.679874915184
 30
0.0
 11
-3452.0
 21
-2422.679874915184
 31
0.0
  0
LINE
  5
5C8
  8
0_INFO
 62
     2
 10
-3452.0
 20
-2422.679874915184
 30
0.0
 11
-3452.0
 21
-2468.679874915184
 31
0.0
  0
LINE
  5
5C9
  8
0_INFO
 62
     2
 10
-3452.0
 20
-2468.679874915184
 30
0.0
 11
-3478.0
 21
-2468.679874915184
 31
0.0
  0
LINE
  5
5CA
  8
0_INFO
 62
     2
 10
-3478.0
 20
-2468.679874915184
 30
0.0
 11
-3478.0
 21
-2422.679874915184
 31
0.0
  0
LINE
  5
5CB
  8
0_INFO
 62
     2
 10
-3518.0
 20
-2422.679874915184
 30
0.0
 11
-3492.0
 21
-2422.679874915184
 31
0.0
  0
LINE
  5
5CC
  8
0_INFO
 62
     2
 10
-3492.0
 20
-2422.679874915184
 30
0.0
 11
-3492.0
 21
-2468.679874915184
 31
0.0
  0
LINE
  5
5CD
  8
0_INFO
 62
     2
 10
-3492.0
 20
-2468.679874915184
 30
0.0
 11
-3518.0
 21
-2468.679874915184
 31
0.0
  0
LINE
  5
5CE
  8
0_INFO
 62
     2
 10
-3518.0
 20
-2468.679874915184
 30
0.0
 11
-3518.0
 21
-2422.679874915184
 31
0.0
  0
LINE
  5
5CF
  8
0_INFO
 62
     2
 10
-3558.0
 20
-2422.679874915184
 30
0.0
 11
-3532.0
 21
-2422.679874915184
 31
0.0
  0
LINE
  5
5D0
  8
0_INFO
 62
     2
 10
-3532.0
 20
-2422.679874915184
 30
0.0
 11
-3532.0
 21
-2468.679874915184
 31
0.0
  0
LINE
  5
5D1
  8
0_INFO
 62
     2
 10
-3532.0
 20
-2468.679874915184
 30
0.0
 11
-3558.0
 21
-2468.679874915184
 31
0.0
  0
LINE
  5
5D2
  8
0_INFO
 62
     2
 10
-3558.0
 20
-2468.679874915184
 30
0.0
 11
-3558.0
 21
-2422.679874915184
 31
0.0
  0
LINE
  5
5D3
  8
0_INFO
 62
     2
 10
-3838.0
 20
-2422.679874915184
 30
0.0
 11
-3812.0
 21
-2422.679874915184
 31
0.0
  0
LINE
  5
5D4
  8
0_INFO
 62
     2
 10
-3812.0
 20
-2422.679874915184
 30
0.0
 11
-3812.0
 21
-2468.679874915184
 31
0.0
  0
LINE
  5
5D5
  8
0_INFO
 62
     2
 10
-3812.0
 20
-2468.679874915184
 30
0.0
 11
-3838.0
 21
-2468.679874915184
 31
0.0
  0
LINE
  5
5D6
  8
0_INFO
 62
     2
 10
-3838.0
 20
-2468.679874915184
 30
0.0
 11
-3838.0
 21
-2422.679874915184
 31
0.0
  0
LINE
  5
5D7
  8
0_INFO
 62
     2
 10
-3798.0
 20
-2422.679874915184
 30
0.0
 11
-3772.0
 21
-2422.679874915184
 31
0.0
  0
LINE
  5
5D8
  8
0_INFO
 62
     2
 10
-3772.0
 20
-2422.679874915184
 30
0.0
 11
-3772.0
 21
-2468.679874915184
 31
0.0
  0
LINE
  5
5D9
  8
0_INFO
 62
     2
 10
-3772.0
 20
-2468.679874915184
 30
0.0
 11
-3798.0
 21
-2468.679874915184
 31
0.0
  0
LINE
  5
5DA
  8
0_INFO
 62
     2
 10
-3798.0
 20
-2468.679874915184
 30
0.0
 11
-3798.0
 21
-2422.679874915184
 31
0.0
  0
LINE
  5
5DB
  8
0_INFO
 62
     2
 10
-3738.0
 20
-2422.679874915184
 30
0.0
 11
-3712.0
 21
-2422.679874915184
 31
0.0
  0
LINE
  5
5DC
  8
0_INFO
 62
     2
 10
-3712.0
 20
-2422.679874915184
 30
0.0
 11
-3712.0
 21
-2468.679874915184
 31
0.0
  0
LINE
  5
5DD
  8
0_INFO
 62
     2
 10
-3712.0
 20
-2468.679874915184
 30
0.0
 11
-3738.0
 21
-2468.679874915184
 31
0.0
  0
LINE
  5
5DE
  8
0_INFO
 62
     2
 10
-3738.0
 20
-2468.679874915184
 30
0.0
 11
-3738.0
 21
-2422.679874915184
 31
0.0
  0
LINE
  5
5DF
  8
0_INFO
 62
     2
 10
-3698.0
 20
-2422.679874915184
 30
0.0
 11
-3672.0
 21
-2422.679874915184
 31
0.0
  0
LINE
  5
5E0
  8
0_INFO
 62
     2
 10
-3672.0
 20
-2422.679874915184
 30
0.0
 11
-3672.0
 21
-2468.679874915184
 31
0.0
  0
LINE
  5
5E1
  8
0_INFO
 62
     2
 10
-3672.0
 20
-2468.679874915184
 30
0.0
 11
-3698.0
 21
-2468.679874915184
 31
0.0
  0
LINE
  5
5E2
  8
0_INFO
 62
     2
 10
-3698.0
 20
-2468.679874915184
 30
0.0
 11
-3698.0
 21
-2422.679874915184
 31
0.0
  0
LINE
  5
5E3
  8
0_INFO
 62
     2
 10
-3638.0
 20
-2422.679874915184
 30
0.0
 11
-3612.0
 21
-2422.679874915184
 31
0.0
  0
LINE
  5
5E4
  8
0_INFO
 62
     2
 10
-3612.0
 20
-2422.679874915184
 30
0.0
 11
-3612.0
 21
-2468.679874915184
 31
0.0
  0
LINE
  5
5E5
  8
0_INFO
 62
     2
 10
-3612.0
 20
-2468.679874915184
 30
0.0
 11
-3638.0
 21
-2468.679874915184
 31
0.0
  0
LINE
  5
5E6
  8
0_INFO
 62
     2
 10
-3638.0
 20
-2468.679874915184
 30
0.0
 11
-3638.0
 21
-2422.679874915184
 31
0.0
  0
LINE
  5
5E7
  8
0_INFO
 62
     2
 10
-3598.0
 20
-2422.679874915184
 30
0.0
 11
-3572.0
 21
-2422.679874915184
 31
0.0
  0
LINE
  5
5E8
  8
0_INFO
 62
     2
 10
-3572.0
 20
-2422.679874915184
 30
0.0
 11
-3572.0
 21
-2468.679874915184
 31
0.0
  0
LINE
  5
5E9
  8
0_INFO
 62
     2
 10
-3572.0
 20
-2468.679874915184
 30
0.0
 11
-3598.0
 21
-2468.679874915184
 31
0.0
  0
LINE
  5
5EA
  8
0_INFO
 62
     2
 10
-3598.0
 20
-2468.679874915184
 30
0.0
 11
-3598.0
 21
-2422.679874915184
 31
0.0
  0
LINE
  5
5EB
  8
0_INFO
 62
     1
 10
-3875.0
 20
-2658.679874915184
 30
0.0
 11
-3175.0
 21
-2658.679874915184
 31
0.0
  0
LINE
  5
5EC
  8
0_INFO
 62
     1
 10
-3875.0
 20
-2656.679874915184
 30
0.0
 11
-3175.0
 21
-2656.679874915184
 31
0.0
  0
LINE
  5
5ED
  8
0_INFO
 62
     1
 10
-3875.0
 20
-2654.679874915184
 30
0.0
 11
-3175.0
 21
-2654.679874915184
 31
0.0
  0
LINE
  5
5EE
  8
0_INFO
 62
     1
 10
-3875.0
 20
-2474.679874915184
 30
0.0
 11
-3175.0
 21
-2474.679874915184
 31
0.0
  0
LINE
  5
5EF
  8
0_INFO
 62
     1
 10
-3875.0
 20
-2472.679874915184
 30
0.0
 11
-3175.0
 21
-2472.679874915184
 31
0.0
  0
LINE
  5
5F0
  8
0_INFO
 62
     1
 10
-3875.0
 20
-2470.679874915184
 30
0.0
 11
-3175.0
 21
-2470.679874915184
 31
0.0
  0
LINE
  5
5F1
  8
0_INFO
 62
     5
 10
-3875.0
 20
-2400.679874915184
 30
0.0
 11
-3175.0
 21
-2400.679874915184
 31
0.0
  0
LINE
  5
5F2
  8
0_INFO
 62
     5
 10
-3175.0
 20
-2400.679874915184
 30
0.0
 11
-3175.0
 21
-2750.679874915184
 31
0.0
  0
LINE
  5
5F3
  8
0_INFO
 62
     5
 10
-3175.0
 20
-2750.679874915184
 30
0.0
 11
-3875.0
 21
-2750.679874915184
 31
0.0
  0
LINE
  5
5F4
  8
0_INFO
 62
     5
 10
-3875.0
 20
-2750.679874915184
 30
0.0
 11
-3875.0
 21
-2400.679874915184
 31
0.0
  0
LINE
  5
5F5
  8
0_INFO
 62
   128
 10
-4141.142584404338
 20
-2317.799925276435
 30
0.0
 11
-3870.12047687173
 21
-2317.799925276435
 31
0.0
  0
TEXT
  5
5F6
  8
0_INFO
 62
   128
 10
-4353.854581263201
 20
-2314.495096407387
 30
0.0
 40
22.6549
  1
Zeichnen | pen
  7
ARIAL
1001
ACADANNOTATIVE
1000
AnnotativeData
1002
{
1070
     1
1070
     0
1002
}
  0
TEXT
  5
5F7
  8
0_INFO
 62
    98
 10
-3884.589390476191
 20
-2371.000414239129
 30
0.0
 40
50.3443
  1
Beispieldatei
  7
ARIAL
1001
ACADANNOTATIVE
1000
AnnotativeData
1002
{
1070
     1
1070
     0
1002
}
  0
LINE
  5
5F8
  8
0_INFO
 62
   254
 10
-2975.0
 20
-2269.107524749243
 30
0.0
 11
-3975.0
 21
-2269.107524749243
 31
0.0
  0
LINE
  5
5F9
  8
0_INFO
 62
   254
 10
-3975.0
 20
-2269.107524749243
 30
0.0
 11
-3975.0
 21
-2969.107524749243
 31
0.0
  0
LINE
  5
5FA
  8
0_INFO
 62
   254
 10
-3975.0
 20
-2969.107524749243
 30
0.0
 11
-2975.0
 21
-2969.107524749243
 31
0.0
  0
LINE
  5
5FB
  8
0_INFO
 62
   254
 10
-2975.0
 20
-2969.107524749243
 30
0.0
 11
-2975.0
 21
-2269.107524749243
 31
0.0
  0
LINE
  5
5FC
  8
1_PAPPENGR__SHEET_SIZE
 10
-4313.866651379283
 20
-876.2166666666667
 30
0.0
 11
-4067.19766253255
 21
-876.2166666666667
 31
0.0
  0
TEXT
  5
5FD
  8
0_INFO
 62
   254
 10
-4054.192057142857
 20
-872.5447404100529
 30
0.0
 40
25.1722
  1
1 Pappengröße (wird nicht geschnitten)_sheet size
  7
ARIAL
1001
ACADANNOTATIVE
1000
AnnotativeData
1002
{
1070
     1
1070
     0
1002
}
  0
TEXT
  5
5FE
  8
0_INFO
 10
-4333.045451379283
 20
-782.4559156941556
 30
0.0
 40
100.6887
  1
LAYER STRUKTUR
  7
ARIAL
1001
ACADANNOTATIVE
1000
AnnotativeData
1002
{
1070
     1
1070
     0
1002
}
  0
LINE
  5
5FF
  8
0_INFO
 62
     1
 10
-2575.0
 20
-624.8374865020899
 30
0.0
 11
-2575.0
 21
-2024.83748650209
 31
0.0
  0
LINE
  5
600
  8
0_INFO
 62
     1
 10
-2575.0
 20
-2024.83748650209
 30
0.0
 11
-4375.0
 21
-2024.83748650209
 31
0.0
  0
LINE
  5
601
  8
0_INFO
 62
     1
 10
-4375.0
 20
-2024.83748650209
 30
0.0
 11
-4375.0
 21
-624.8374865020899
 31
0.0
  0
LINE
  5
602
  8
0_INFO
 62
     1
 10
-4375.0
 20
-624.8374865020899
 30
0.0
 11
-2575.0
 21
-624.8374865020899
 31
0.0
  0
INSERT
  5
603
  8
0_INFO
  2
*X3
 10
0.0
 20
0.0
 30
0.0
  0
INSERT
  5
604
  8
0_INFO
 62
     1
  2
*X4
 10
0.0
 20
0.0
 30
0.0
  0
TEXT
  5
605
  8
0_INFO
 62
     1
 10
22.38685271362748
 20
502.8022296206091
 30
0.0
 40
25.1722
  1
Pappen mit derselben Materialstärke müssen übereinander im Querformat auf die vorgesehenen Felder angeordnet werden !
  7
ARIAL
1001
ACADANNOTATIVE
1000
AnnotativeData
1002
{
1070
     1
1070
     0
1002
}
  0
LINE
  5
606
  8
1_PAPPENGR__SHEET_SIZE
 10
-1000.0
 20
14600.0
 30
0.0
 11
0.0
 21
14600.0
 31
0.0
  0
LINE
  5
607
  8
1_PAPPENGR__SHEET_SIZE
 10
0.0
 20
14600.0
 30
0.0
 11
0.0
 21
13900.0
 31
0.0
  0
LINE
  5
608
  8
1_PAPPENGR__SHEET_SIZE
 10
0.0
 20
13900.0
 30
0.0
 11
-1000.0
 21
13900.0
 31
0.0
  0
LINE
  5
609
  8
1_PAPPENGR__SHEET_SIZE
 10
-1000.0
 20
13900.0
 30
0.0
 11
-1000.0
 21
14600.0
 31
0.0
  0
LINE
  5
60A
  8
1_PAPPENGR__SHEET_SIZE
 10
-1000.0
 20
13782.0
 30
0.0
 11
0.0
 21
13782.0
 31
0.0
  0
LINE
  5
60B
  8
1_PAPPENGR__SHEET_SIZE
 10
0.0
 20
13782.0
 30
0.0
 11
0.0
 21
13082.0
 31
0.0
  0
LINE
  5
60C
  8
1_PAPPENGR__SHEET_SIZE
 10
0.0
 20
13082.0
 30
0.0
 11
-1000.0
 21
13082.0
 31
0.0
  0
LINE
  5
60D
  8
1_PAPPENGR__SHEET_SIZE
 10
-1000.0
 20
13082.0
 30
0.0
 11
-1000.0
 21
13782.0
 31
0.0
  0
LINE
  5
60E
  8
1_PAPPENGR__SHEET_SIZE
 10
-1000.0
 20
12964.0
 30
0.0
 11
0.0
 21
12964.0
 31
0.0
  0
LINE
  5
60F
  8
1_PAPPENGR__SHEET_SIZE
 10
0.0
 20
12964.0
 30
0.0
 11
0.0
 21
12264.0
 31
0.0
  0
LINE
  5
610
  8
1_PAPPENGR__SHEET_SIZE
 10
0.0
 20
12264.0
 30
0.0
 11
-1000.0
 21
12264.0
 31
0.0
  0
LINE
  5
611
  8
1_PAPPENGR__SHEET_SIZE
 10
-1000.0
 20
12264.0
 30
0.0
 11
-1000.0
 21
12964.0
 31
0.0
  0
LINE
  5
612
  8
1_PAPPENGR__SHEET_SIZE
 10
-1000.0
 20
12146.0
 30
0.0
 11
0.0
 21
12146.0
 31
0.0
  0
LINE
  5
613
  8
1_PAPPENGR__SHEET_SIZE
 10
0.0
 20
12146.0
 30
0.0
 11
0.0
 21
11446.0
 31
0.0
  0
LINE
  5
614
  8
1_PAPPENGR__SHEET_SIZE
 10
0.0
 20
11446.0
 30
0.0
 11
-1000.0
 21
11446.0
 31
0.0
  0
LINE
  5
615
  8
1_PAPPENGR__SHEET_SIZE
 10
-1000.0
 20
11446.0
 30
0.0
 11
-1000.0
 21
12146.0
 31
0.0
  0
LINE
  5
616
  8
1_PAPPENGR__SHEET_SIZE
 10
-1000.0
 20
11328.0
 30
0.0
 11
0.0
 21
11328.0
 31
0.0
  0
LINE
  5
617
  8
1_PAPPENGR__SHEET_SIZE
 10
0.0
 20
11328.0
 30
0.0
 11
0.0
 21
10628.0
 31
0.0
  0
LINE
  5
618
  8
1_PAPPENGR__SHEET_SIZE
 10
0.0
 20
10628.0
 30
0.0
 11
-1000.0
 21
10628.0
 31
0.0
  0
LINE
  5
619
  8
1_PAPPENGR__SHEET_SIZE
 10
-1000.0
 20
10628.0
 30
0.0
 11
-1000.0
 21
11328.0
 31
0.0
  0
LINE
  5
61A
  8
1_PAPPENGR__SHEET_SIZE
 10
-1000.0
 20
10510.0
 30
0.0
 11
0.0
 21
10510.0
 31
0.0
  0
LINE
  5
61B
  8
1_PAPPENGR__SHEET_SIZE
 10
0.0
 20
10510.0
 30
0.0
 11
0.0
 21
9810.0
 31
0.0
  0
LINE
  5
61C
  8
1_PAPPENGR__SHEET_SIZE
 10
0.0
 20
9810.0
 30
0.0
 11
-1000.0
 21
9810.0
 31
0.0
  0
LINE
  5
61D
  8
1_PAPPENGR__SHEET_SIZE
 10
-1000.0
 20
9810.0
 30
0.0
 11
-1000.0
 21
10510.0
 31
0.0
  0
LINE
  5
61E
  8
1_PAPPENGR__SHEET_SIZE
 10
-1000.0
 20
9692.0
 30
0.0
 11
0.0
 21
9692.0
 31
0.0
  0
LINE
  5
61F
  8
1_PAPPENGR__SHEET_SIZE
 10
0.0
 20
9692.0
 30
0.0
 11
0.0
 21
8992.0
 31
0.0
  0
LINE
  5
620
  8
1_PAPPENGR__SHEET_SIZE
 10
0.0
 20
8992.0
 30
0.0
 11
-1000.0
 21
8992.0
 31
0.0
  0
LINE
  5
621
  8
1_PAPPENGR__SHEET_SIZE
 10
-1000.0
 20
8992.0
 30
0.0
 11
-1000.0
 21
9692.0
 31
0.0
  0
LINE
  5
622
  8
1_PAPPENGR__SHEET_SIZE
 10
-1000.0
 20
8874.0
 30
0.0
 11
0.0
 21
8874.0
 31
0.0
  0
LINE
  5
623
  8
1_PAPPENGR__SHEET_SIZE
 10
0.0
 20
8874.0
 30
0.0
 11
0.0
 21
8174.0
 31
0.0
  0
LINE
  5
624
  8
1_PAPPENGR__SHEET_SIZE
 10
0.0
 20
8174.0
 30
0.0
 11
-1000.0
 21
8174.0
 31
0.0
  0
LINE
  5
625
  8
1_PAPPENGR__SHEET_SIZE
 10
-1000.0
 20
8174.0
 30
0.0
 11
-1000.0
 21
8874.0
 31
0.0
  0
LINE
  5
626
  8
1_PAPPENGR__SHEET_SIZE
 10
-1000.0
 20
8056.0
 30
0.0
 11
0.0
 21
8056.0
 31
0.0
  0
LINE
  5
627
  8
1_PAPPENGR__SHEET_SIZE
 10
0.0
 20
8056.0
 30
0.0
 11
0.0
 21
7356.0
 31
0.0
  0
LINE
  5
628
  8
1_PAPPENGR__SHEET_SIZE
 10
0.0
 20
7356.0
 30
0.0
 11
-1000.0
 21
7356.0
 31
0.0
  0
LINE
  5
629
  8
1_PAPPENGR__SHEET_SIZE
 10
-1000.0
 20
7356.0
 30
0.0
 11
-1000.0
 21
8056.0
 31
0.0
  0
LINE
  5
62A
  8
1_PAPPENGR__SHEET_SIZE
 10
-1000.0
 20
7238.0
 30
0.0
 11
0.0
 21
7238.0
 31
0.0
  0
LINE
  5
62B
  8
1_PAPPENGR__SHEET_SIZE
 10
0.0
 20
7238.0
 30
0.0
 11
0.0
 21
6538.0
 31
0.0
  0
LINE
  5
62C
  8
1_PAPPENGR__SHEET_SIZE
 10
0.0
 20
6538.0
 30
0.0
 11
-1000.0
 21
6538.0
 31
0.0
  0
LINE
  5
62D
  8
1_PAPPENGR__SHEET_SIZE
 10
-1000.0
 20
6538.0
 30
0.0
 11
-1000.0
 21
7238.0
 31
0.0
  0
LINE
  5
62E
  8
1_PAPPENGR__SHEET_SIZE
 10
-1000.0
 20
6420.0
 30
0.0
 11
0.0
 21
6420.0
 31
0.0
  0
LINE
  5
62F
  8
1_PAPPENGR__SHEET_SIZE
 10
0.0
 20
6420.0
 30
0.0
 11
0.0
 21
5720.0
 31
0.0
  0
LINE
  5
630
  8
1_PAPPENGR__SHEET_SIZE
 10
0.0
 20
5720.0
 30
0.0
 11
-1000.0
 21
5720.0
 31
0.0
  0
LINE
  5
631
  8
1_PAPPENGR__SHEET_SIZE
 10
-1000.0
 20
5720.0
 30
0.0
 11
-1000.0
 21
6420.0
 31
0.0
  0
LINE
  5
632
  8
1_PAPPENGR__SHEET_SIZE
 10
-1000.0
 20
5602.0
 30
0.0
 11
0.0
 21
5602.0
 31
0.0
  0
LINE
  5
633
  8
1_PAPPENGR__SHEET_SIZE
 10
0.0
 20
5602.0
 30
0.0
 11
0.0
 21
4902.0
 31
0.0
  0
LINE
  5
634
  8
1_PAPPENGR__SHEET_SIZE
 10
0.0
 20
4902.0
 30
0.0
 11
-1000.0
 21
4902.0
 31
0.0
  0
LINE
  5
635
  8
1_PAPPENGR__SHEET_SIZE
 10
-1000.0
 20
4902.0
 30
0.0
 11
-1000.0
 21
5602.0
 31
0.0
  0
LINE
  5
636
  8
1_PAPPENGR__SHEET_SIZE
 10
-1000.0
 20
4784.0
 30
0.0
 11
0.0
 21
4784.0
 31
0.0
  0
LINE
  5
637
  8
1_PAPPENGR__SHEET_SIZE
 10
0.0
 20
4784.0
 30
0.0
 11
0.0
 21
4084.0
 31
0.0
  0
LINE
  5
638
  8
1_PAPPENGR__SHEET_SIZE
 10
0.0
 20
4084.0
 30
0.0
 11
-1000.0
 21
4084.0
 31
0.0
  0
LINE
  5
639
  8
1_PAPPENGR__SHEET_SIZE
 10
-1000.0
 20
4084.0
 30
0.0
 11
-1000.0
 21
4784.0
 31
0.0
  0
TEXT
  5
63A
  8
0_INFO
 10
-626.2392873744465
 20
23.56359292328038
 30
0.0
 40
25.1722
  1
Schneidplotter | max. 1600 x 1200 mm
  7
ARIAL
1001
ACADANNOTATIVE
1000
AnnotativeData
1002
{
1070
     1
1070
     0
1002
}
  0
LINE
  5
63B
  8
1_PAPPENGR__SHEET_SIZE
 10
0.0
 20
1630.0
 30
0.0
 11
0.0
 21
2330.0
 31
0.0
  0
LINE
  5
63C
  8
1_PAPPENGR__SHEET_SIZE
 10
0.0
 20
2330.0
 30
0.0
 11
-1000.0
 21
2330.0
 31
0.0
  0
LINE
  5
63D
  8
1_PAPPENGR__SHEET_SIZE
 10
-1000.0
 20
2330.0
 30
0.0
 11
-1000.0
 21
1630.0
 31
0.0
  0
LINE
  5
63E
  8
1_PAPPENGR__SHEET_SIZE
 10
-1000.0
 20
1630.0
 30
0.0
 11
0.0
 21
1630.0
 31
0.0
  0
LINE
  5
63F
  8
1_PAPPENGR__SHEET_SIZE
 10
-1000.0
 20
2448.0
 30
0.0
 11
-1000.0
 21
3148.0
 31
0.0
  0
LINE
  5
640
  8
1_PAPPENGR__SHEET_SIZE
 10
-1000.0
 20
3148.0
 30
0.0
 11
0.0
 21
3148.0
 31
0.0
  0
LINE
  5
641
  8
1_PAPPENGR__SHEET_SIZE
 10
0.0
 20
3148.0
 30
0.0
 11
0.0
 21
2448.0
 31
0.0
  0
LINE
  5
642
  8
1_PAPPENGR__SHEET_SIZE
 10
0.0
 20
2448.0
 30
0.0
 11
-1000.0
 21
2448.0
 31
0.0
  0
LINE
  5
643
  8
1_PAPPENGR__SHEET_SIZE
 10
-1000.0
 20
3966.0
 30
0.0
 11
0.0
 21
3966.0
 31
0.0
  0
LINE
  5
644
  8
1_PAPPENGR__SHEET_SIZE
 10
0.0
 20
3966.0
 30
0.0
 11
0.0
 21
3266.0
 31
0.0
  0
LINE
  5
645
  8
1_PAPPENGR__SHEET_SIZE
 10
0.0
 20
3266.0
 30
0.0
 11
-1000.0
 21
3266.0
 31
0.0
  0
LINE
  5
646
  8
1_PAPPENGR__SHEET_SIZE
 10
-1000.0
 20
3266.0
 30
0.0
 11
-1000.0
 21
3966.0
 31
0.0
  0
LINE
  5
647
  8
1_PAPPENGR__SHEET_SIZE
 10
-1000.0
 20
1512.0
 30
0.0
 11
-1000.0
 21
812.0
 31
0.0
  0
LINE
  5
648
  8
1_PAPPENGR__SHEET_SIZE
 10
-1000.0
 20
812.0
 30
0.0
 11
0.0
 21
812.0
 31
0.0
  0
LINE
  5
649
  8
1_PAPPENGR__SHEET_SIZE
 10
0.0
 20
812.0
 30
0.0
 11
0.0
 21
1512.0
 31
0.0
  0
LINE
  5
64A
  8
1_PAPPENGR__SHEET_SIZE
 10
0.0
 20
1512.0
 30
0.0
 11
-1000.0
 21
1512.0
 31
0.0
  0
ARC
  5
64B
  8
0_INFO
 10
0.0
 20
0.0
 30
0.0
 40
49.99999999999999
 50
0.0
 51
90.0
  0
LINE
  5
64C
  8
0_INFO
 62
     3
 10
-3210.0
 20
-2470.679874915184
 30
0.0
 11
-3210.0
 21
-2420.679874915184
 31
0.0
  0
LINE
  5
64D
  8
0_INFO
 62
     3
 10
-3210.0
 20
-2420.679874915184
 30
0.0
 11
-3240.0
 21
-2420.679874915184
 31
0.0
  0
LINE
  5
64E
  8
0_INFO
 62
     3
 10
-3240.0
 20
-2420.679874915184
 30
0.0
 11
-3240.0
 21
-2470.679874915184
 31
0.0
  0
LINE
  5
64F
  8
0_INFO
 62
     3
 10
-3250.0
 20
-2470.679874915184
 30
0.0
 11
-3250.0
 21
-2420.679874915184
 31
0.0
  0
LINE
  5
650
  8
0_INFO
 62
     3
 10
-3250.0
 20
-2420.679874915184
 30
0.0
 11
-3280.0
 21
-2420.679874915184
 31
0.0
  0
LINE
  5
651
  8
0_INFO
 62
     3
 10
-3280.0
 20
-2420.679874915184
 30
0.0
 11
-3280.0
 21
-2470.679874915184
 31
0.0
  0
LINE
  5
652
  8
0_INFO
 62
     3
 10
-3310.0
 20
-2470.679874915184
 30
0.0
 11
-3310.0
 21
-2420.679874915184
 31
0.0
  0
LINE
  5
653
  8
0_INFO
 62
     3
 10
-3310.0
 20
-2420.679874915184
 30
0.0
 11
-3340.0
 21
-2420.679874915184
 31
0.0
  0
LINE
  5
654
  8
0_INFO
 62
     3
 10
-3340.0
 20
-2420.679874915184
 30
0.0
 11
-3340.0
 21
-2470.679874915184
 31
0.0
  0
LINE
  5
655
  8
0_INFO
 62
     3
 10
-3350.0
 20
-2470.679874915184
 30
0.0
 11
-3350.0
 21
-2420.679874915184
 31
0.0
  0
LINE
  5
656
  8
0_INFO
 62
     3
 10
-3350.0
 20
-2420.679874915184
 30
0.0
 11
-3380.0
 21
-2420.679874915184
 31
0.0
  0
LINE
  5
657
  8
0_INFO
 62
     3
 10
-3380.0
 20
-2420.679874915184
 30
0.0
 11
-3380.0
 21
-2470.679874915184
 31
0.0
  0
LINE
  5
658
  8
0_INFO
 62
     3
 10
-3840.0
 20
-2470.679874915184
 30
0.0
 11
-3840.0
 21
-2420.679874915184
 31
0.0
  0
LINE
  5
659
  8
0_INFO
 62
     3
 10
-3840.0
 20
-2420.679874915184
 30
0.0
 11
-3810.0
 21
-2420.679874915184
 31
0.0
  0
LINE
  5
65A
  8
0_INFO
 62
     3
 10
-3810.0
 20
-2420.679874915184
 30
0.0
 11
-3810.0
 21
-2470.679874915184
 31
0.0
  0
LINE
  5
65B
  8
0_INFO
 62
     3
 10
-3800.0
 20
-2470.679874915184
 30
0.0
 11
-3800.0
 21
-2420.679874915184
 31
0.0
  0
LINE
  5
65C
  8
0_INFO
 62
     3
 10
-3800.0
 20
-2420.679874915184
 30
0.0
 11
-3770.0
 21
-2420.679874915184
 31
0.0
  0
LINE
  5
65D
  8
0_INFO
 62
     3
 10
-3770.0
 20
-2420.679874915184
 30
0.0
 11
-3770.0
 21
-2470.679874915184
 31
0.0
  0
LINE
  5
65E
  8
0_INFO
 62
     3
 10
-3740.0
 20
-2470.679874915184
 30
0.0
 11
-3740.0
 21
-2420.679874915184
 31
0.0
  0
LINE
  5
65F
  8
0_INFO
 62
     3
 10
-3740.0
 20
-2420.679874915184
 30
0.0
 11
-3710.0
 21
-2420.679874915184
 31
0.0
  0
LINE
  5
660
  8
0_INFO
 62
     3
 10
-3710.0
 20
-2420.679874915184
 30
0.0
 11
-3710.0
 21
-2470.679874915184
 31
0.0
  0
LINE
  5
661
  8
0_INFO
 62
     3
 10
-3700.0
 20
-2470.679874915184
 30
0.0
 11
-3700.0
 21
-2420.679874915184
 31
0.0
  0
LINE
  5
662
  8
0_INFO
 62
     3
 10
-3700.0
 20
-2420.679874915184
 30
0.0
 11
-3670.0
 21
-2420.679874915184
 31
0.0
  0
LINE
  5
663
  8
0_INFO
 62
     3
 10
-3670.0
 20
-2420.679874915184
 30
0.0
 11
-3670.0
 21
-2470.679874915184
 31
0.0
  0
LINE
  5
664
  8
0_INFO
 62
     3
 10
-3410.0
 20
-2470.679874915184
 30
0.0
 11
-3410.0
 21
-2420.679874915184
 31
0.0
  0
LINE
  5
665
  8
0_INFO
 62
     3
 10
-3410.0
 20
-2420.679874915184
 30
0.0
 11
-3440.0
 21
-2420.679874915184
 31
0.0
  0
LINE
  5
666
  8
0_INFO
 62
     3
 10
-3440.0
 20
-2420.679874915184
 30
0.0
 11
-3440.0
 21
-2470.679874915184
 31
0.0
  0
LINE
  5
667
  8
0_INFO
 62
     3
 10
-3450.0
 20
-2470.679874915184
 30
0.0
 11
-3450.0
 21
-2420.679874915184
 31
0.0
  0
LINE
  5
668
  8
0_INFO
 62
     3
 10
-3450.0
 20
-2420.679874915184
 30
0.0
 11
-3480.0
 21
-2420.679874915184
 31
0.0
  0
LINE
  5
669
  8
0_INFO
 62
     3
 10
-3480.0
 20
-2420.679874915184
 30
0.0
 11
-3480.0
 21
-2470.679874915184
 31
0.0
  0
LINE
  5
66A
  8
0_INFO
 62
     3
 10
-3640.0
 20
-2470.679874915184
 30
0.0
 11
-3640.0
 21
-2420.679874915184
 31
0.0
  0
LINE
  5
66B
  8
0_INFO
 62
     3
 10
-3640.0
 20
-2420.679874915184
 30
0.0
 11
-3610.0
 21
-2420.679874915184
 31
0.0
  0
LINE
  5
66C
  8
0_INFO
 62
     3
 10
-3610.0
 20
-2420.679874915184
 30
0.0
 11
-3610.0
 21
-2470.679874915184
 31
0.0
  0
LINE
  5
66D
  8
0_INFO
 62
     3
 10
-3600.0
 20
-2470.679874915184
 30
0.0
 11
-3600.0
 21
-2420.679874915184
 31
0.0
  0
LINE
  5
66E
  8
0_INFO
 62
     3
 10
-3600.0
 20
-2420.679874915184
 30
0.0
 11
-3570.0
 21
-2420.679874915184
 31
0.0
  0
LINE
  5
66F
  8
0_INFO
 62
     3
 10
-3570.0
 20
-2420.679874915184
 30
0.0
 11
-3570.0
 21
-2470.679874915184
 31
0.0
  0
LINE
  5
670
  8
0_INFO
 62
     3
 10
-3490.0
 20
-2470.679874915184
 30
0.0
 11
-3490.0
 21
-2420.679874915184
 31
0.0
  0
LINE
  5
671
  8
0_INFO
 62
     3
 10
-3490.0
 20
-2420.679874915184
 30
0.0
 11
-3520.0
 21
-2420.679874915184
 31
0.0
  0
LINE
  5
672
  8
0_INFO
 62
     3
 10
-3520.0
 20
-2420.679874915184
 30
0.0
 11
-3520.0
 21
-2470.679874915184
 31
0.0
  0
LINE
  5
673
  8
0_INFO
 62
     3
 10
-3560.0
 20
-2470.679874915184
 30
0.0
 11
-3560.0
 21
-2420.679874915184
 31
0.0
  0
LINE
  5
674
  8
0_INFO
 62
     3
 10
-3560.0
 20
-2420.679874915184
 30
0.0
 11
-3530.0
 21
-2420.679874915184
 31
0.0
  0
LINE
  5
675
  8
0_INFO
 62
     3
 10
-3530.0
 20
-2420.679874915184
 30
0.0
 11
-3530.0
 21
-2470.679874915184
 31
0.0
  0
LINE
  5
676
  8
0_INFO
 62
     4
 10
-3208.0
 20
-2499.679874915184
 30
0.0
 11
-3208.0
 21
-2551.679874915185
 31
0.0
  0
LINE
  5
677
  8
0_INFO
 62
     4
 10
-3208.0
 20
-2551.679874915185
 30
0.0
 11
-3210.0
 21
-2551.679874915185
 31
0.0
  0
LINE
  5
678
  8
0_INFO
 62
     4
 10
-3210.0
 20
-2551.679874915185
 30
0.0
 11
-3210.0
 21
-2501.679874915184
 31
0.0
  0
LINE
  5
679
  8
0_INFO
 62
     4
 10
-3210.0
 20
-2501.679874915184
 30
0.0
 11
-3240.0
 21
-2501.679874915184
 31
0.0
  0
LINE
  5
67A
  8
0_INFO
 62
     4
 10
-3240.0
 20
-2501.679874915184
 30
0.0
 11
-3240.0
 21
-2551.679874915185
 31
0.0
  0
LINE
  5
67B
  8
0_INFO
 62
     4
 10
-3240.0
 20
-2551.679874915185
 30
0.0
 11
-3242.0
 21
-2551.679874915185
 31
0.0
  0
LINE
  5
67C
  8
0_INFO
 62
     4
 10
-3242.0
 20
-2551.679874915185
 30
0.0
 11
-3242.0
 21
-2499.679874915184
 31
0.0
  0
LINE
  5
67D
  8
0_INFO
 62
     4
 10
-3242.0
 20
-2499.679874915184
 30
0.0
 11
-3208.0
 21
-2499.679874915184
 31
0.0
  0
INSERT
  5
67E
  8
0_INFO
  6
CONTINUOUS
 62
     4
  2
*U5
 10
0.0
 20
0.0
 30
0.0
1001
ACAD
1002
{
1000
R14_HATCH_DATA
1000
67E
1011
1.0
1021
0.0
1031
0.0
1021
0.0
1031
0.0
1011
0.0
1021
1.0
1031
0.0
1021
1.0
1031
0.0
1011
0.0
1021
0.0
1031
1.0
1021
0.0
1031
1.0
1040
0.0
1010
0.0
1020
0.0
1030
-1.0
1000
SOLID
1070
     1
1070
     1
1071
        1
1071
        2
1070
     0
1070
     1
1071
        8
1040
3208.0
1040
-2499.679874915184
1040
3208.0
1040
-2551.679874915185
1040
3210.0
1040
-2551.679874915185
1040
3210.0
1040
-2501.679874915184
1040
3240.0
1040
-2501.679874915184
1040
3240.0
1040
-2551.679874915185
1040
3242.0
1040
-2551.679874915185
1040
3242.0
1040
-2499.679874915184
1071
        0
1070
     0
1070
     1
1071
        0
1002
}
  0
LINE
  5
67F
  8
0_INFO
 62
     4
 10
-3282.0
 20
-2499.679874915184
 30
0.0
 11
-3282.0
 21
-2551.679874915185
 31
0.0
  0
LINE
  5
680
  8
0_INFO
 62
     4
 10
-3282.0
 20
-2551.679874915185
 30
0.0
 11
-3280.0
 21
-2551.679874915185
 31
0.0
  0
LINE
  5
681
  8
0_INFO
 62
     4
 10
-3280.0
 20
-2551.679874915185
 30
0.0
 11
-3280.0
 21
-2501.679874915184
 31
0.0
  0
LINE
  5
682
  8
0_INFO
 62
     4
 10
-3280.0
 20
-2501.679874915184
 30
0.0
 11
-3250.0
 21
-2501.679874915184
 31
0.0
  0
LINE
  5
683
  8
0_INFO
 62
     4
 10
-3250.0
 20
-2501.679874915184
 30
0.0
 11
-3250.0
 21
-2551.679874915185
 31
0.0
  0
LINE
  5
684
  8
0_INFO
 62
     4
 10
-3250.0
 20
-2551.679874915185
 30
0.0
 11
-3248.0
 21
-2551.679874915185
 31
0.0
  0
LINE
  5
685
  8
0_INFO
 62
     4
 10
-3248.0
 20
-2551.679874915185
 30
0.0
 11
-3248.0
 21
-2499.679874915184
 31
0.0
  0
LINE
  5
686
  8
0_INFO
 62
     4
 10
-3248.0
 20
-2499.679874915184
 30
0.0
 11
-3282.0
 21
-2499.679874915184
 31
0.0
  0
INSERT
  5
687
  8
0_INFO
  6
CONTINUOUS
 62
     4
  2
*U6
 10
0.0
 20
0.0
 30
0.0
1001
ACAD
1002
{
1000
R14_HATCH_DATA
1000
687
1011
1.0
1021
0.0
1031
0.0
1021
0.0
1031
0.0
1011
0.0
1021
1.0
1031
0.0
1021
1.0
1031
0.0
1011
0.0
1021
0.0
1031
1.0
1021
0.0
1031
1.0
1040
0.0
1010
0.0
1020
0.0
1030
1.0
1000
SOLID
1070
     1
1070
     1
1071
        1
1071
        2
1070
     0
1070
     1
1071
        8
1040
-3282.0
1040
-2499.679874915184
1040
-3282.0
1040
-2551.679874915185
1040
-3280.0
1040
-2551.679874915185
1040
-3280.0
1040
-2501.679874915184
1040
-3250.0
1040
-2501.679874915184
1040
-3250.0
1040
-2551.679874915185
1040
-3248.0
1040
-2551.679874915185
1040
-3248.0
1040
-2499.679874915184
1071
        0
1070
     0
1070
     1
1071
        0
1002
}
  0
LINE
  5
688
  8
0_INFO
 62
     4
 10
-3308.0
 20
-2499.679874915184
 30
0.0
 11
-3308.0
 21
-2551.679874915185
 31
0.0
  0
LINE
  5
689
  8
0_INFO
 62
     4
 10
-3308.0
 20
-2551.679874915185
 30
0.0
 11
-3310.0
 21
-2551.679874915185
 31
0.0
  0
LINE
  5
68A
  8
0_INFO
 62
     4
 10
-3310.0
 20
-2551.679874915185
 30
0.0
 11
-3310.0
 21
-2501.679874915184
 31
0.0
  0
LINE
  5
68B
  8
0_INFO
 62
     4
 10
-3310.0
 20
-2501.679874915184
 30
0.0
 11
-3340.0
 21
-2501.679874915184
 31
0.0
  0
LINE
  5
68C
  8
0_INFO
 62
     4
 10
-3340.0
 20
-2501.679874915184
 30
0.0
 11
-3340.0
 21
-2551.679874915185
 31
0.0
  0
LINE
  5
68D
  8
0_INFO
 62
     4
 10
-3340.0
 20
-2551.679874915185
 30
0.0
 11
-3342.0
 21
-2551.679874915185
 31
0.0
  0
LINE
  5
68E
  8
0_INFO
 62
     4
 10
-3342.0
 20
-2551.679874915185
 30
0.0
 11
-3342.0
 21
-2499.679874915184
 31
0.0
  0
LINE
  5
68F
  8
0_INFO
 62
     4
 10
-3342.0
 20
-2499.679874915184
 30
0.0
 11
-3308.0
 21
-2499.679874915184
 31
0.0
  0
INSERT
  5
690
  8
0_INFO
  6
CONTINUOUS
 62
     4
  2
*U7
 10
0.0
 20
0.0
 30
0.0
1001
ACAD
1002
{
1000
R14_HATCH_DATA
1000
690
1011
1.0
1021
0.0
1031
0.0
1021
0.0
1031
0.0
1011
0.0
1021
1.0
1031
0.0
1021
1.0
1031
0.0
1011
0.0
1021
0.0
1031
1.0
1021
0.0
1031
1.0
1040
0.0
1010
0.0
1020
0.0
1030
-1.0
1000
SOLID
1070
     1
1070
     1
1071
        1
1071
        2
1070
     0
1070
     1
1071
        8
1040
3308.0
1040
-2499.679874915184
1040
3308.0
1040
-2551.679874915185
1040
3310.0
1040
-2551.679874915185
1040
3310.0
1040
-2501.679874915184
1040
3340.0
1040
-2501.679874915184
1040
3340.0
1040
-2551.679874915185
1040
3342.0
1040
-2551.679874915185
1040
3342.0
1040
-2499.679874915184
1071
        0
1070
     0
1070
     1
1071
        0
1002
}
  0
LINE
  5
691
  8
0_INFO
 62
     4
 10
-3382.0
 20
-2499.679874915184
 30
0.0
 11
-3382.0
 21
-2551.679874915185
 31
0.0
  0
LINE
  5
692
  8
0_INFO
 62
     4
 10
-3382.0
 20
-2551.679874915185
 30
0.0
 11
-3380.0
 21
-2551.679874915185
 31
0.0
  0
LINE
  5
693
  8
0_INFO
 62
     4
 10
-3380.0
 20
-2551.679874915185
 30
0.0
 11
-3380.0
 21
-2501.679874915184
 31
0.0
  0
LINE
  5
694
  8
0_INFO
 62
     4
 10
-3380.0
 20
-2501.679874915184
 30
0.0
 11
-3350.0
 21
-2501.679874915184
 31
0.0
  0
LINE
  5
695
  8
0_INFO
 62
     4
 10
-3350.0
 20
-2501.679874915184
 30
0.0
 11
-3350.0
 21
-2551.679874915185
 31
0.0
  0
LINE
  5
696
  8
0_INFO
 62
     4
 10
-3350.0
 20
-2551.679874915185
 30
0.0
 11
-3348.0
 21
-2551.679874915185
 31
0.0
  0
LINE
  5
697
  8
0_INFO
 62
     4
 10
-3348.0
 20
-2551.679874915185
 30
0.0
 11
-3348.0
 21
-2499.679874915184
 31
0.0
  0
LINE
  5
698
  8
0_INFO
 62
     4
 10
-3348.0
 20
-2499.679874915184
 30
0.0
 11
-3382.0
 21
-2499.679874915184
 31
0.0
  0
INSERT
  5
699
  8
0_INFO
  6
CONTINUOUS
 62
     4
  2
*U8
 10
0.0
 20
0.0
 30
0.0
1001
ACAD
1002
{
1000
R14_HATCH_DATA
1000
699
1011
1.0
1021
0.0
1031
0.0
1021
0.0
1031
0.0
1011
0.0
1021
1.0
1031
0.0
1021
1.0
1031
0.0
1011
0.0
1021
0.0
1031
1.0
1021
0.0
1031
1.0
1040
0.0
1010
0.0
1020
0.0
1030
1.0
1000
SOLID
1070
     1
1070
     1
1071
        1
1071
        2
1070
     0
1070
     1
1071
        8
1040
-3382.0
1040
-2499.679874915184
1040
-3382.0
1040
-2551.679874915185
1040
-3380.0
1040
-2551.679874915185
1040
-3380.0
1040
-2501.679874915184
1040
-3350.0
1040
-2501.679874915184
1040
-3350.0
1040
-2551.679874915185
1040
-3348.0
1040
-2551.679874915185
1040
-3348.0
1040
-2499.679874915184
1071
        0
1070
     0
1070
     1
1071
        0
1002
}
  0
LINE
  5
69A
  8
0_INFO
 62
     4
 10
-3408.0
 20
-2499.679874915184
 30
0.0
 11
-3408.0
 21
-2551.679874915185
 31
0.0
  0
LINE
  5
69B
  8
0_INFO
 62
     4
 10
-3408.0
 20
-2551.679874915185
 30
0.0
 11
-3410.0
 21
-2551.679874915185
 31
0.0
  0
LINE
  5
69C
  8
0_INFO
 62
     4
 10
-3410.0
 20
-2551.679874915185
 30
0.0
 11
-3410.0
 21
-2501.679874915184
 31
0.0
  0
LINE
  5
69D
  8
0_INFO
 62
     4
 10
-3410.0
 20
-2501.679874915184
 30
0.0
 11
-3440.0
 21
-2501.679874915184
 31
0.0
  0
LINE
  5
69E
  8
0_INFO
 62
     4
 10
-3440.0
 20
-2501.679874915184
 30
0.0
 11
-3440.0
 21
-2551.679874915185
 31
0.0
  0
LINE
  5
69F
  8
0_INFO
 62
     4
 10
-3440.0
 20
-2551.679874915185
 30
0.0
 11
-3442.0
 21
-2551.679874915185
 31
0.0
  0
LINE
  5
6A0
  8
0_INFO
 62
     4
 10
-3442.0
 20
-2551.679874915185
 30
0.0
 11
-3442.0
 21
-2499.679874915184
 31
0.0
  0
LINE
  5
6A1
  8
0_INFO
 62
     4
 10
-3442.0
 20
-2499.679874915184
 30
0.0
 11
-3408.0
 21
-2499.679874915184
 31
0.0
  0
INSERT
  5
6A2
  8
0_INFO
  6
CONTINUOUS
 62
     4
  2
*U9
 10
0.0
 20
0.0
 30
0.0
1001
ACAD
1002
{
1000
R14_HATCH_DATA
1000
6A2
1011
1.0
1021
0.0
1031
0.0
1021
0.0
1031
0.0
1011
0.0
1021
1.0
1031
0.0
1021
1.0
1031
0.0
1011
0.0
1021
0.0
1031
1.0
1021
0.0
1031
1.0
1040
0.0
1010
0.0
1020
0.0
1030
-1.0
1000
SOLID
1070
     1
1070
     1
1071
        1
1071
        2
1070
     0
1070
     1
1071
        8
1040
3408.0
1040
-2499.679874915184
1040
3408.0
1040
-2551.679874915185
1040
3410.0
1040
-2551.679874915185
1040
3410.0
1040
-2501.679874915184
1040
3440.0
1040
-2501.679874915184
1040
3440.0
1040
-2551.679874915185
1040
3442.0
1040
-2551.679874915185
1040
3442.0
1040
-2499.679874915184
1071
        0
1070
     0
1070
     1
1071
        0
1002
}
  0
LINE
  5
6A3
  8
0_INFO
 62
     4
 10
-3482.0
 20
-2499.679874915184
 30
0.0
 11
-3482.0
 21
-2551.679874915185
 31
0.0
  0
LINE
  5
6A4
  8
0_INFO
 62
     4
 10
-3482.0
 20
-2551.679874915185
 30
0.0
 11
-3480.0
 21
-2551.679874915185
 31
0.0
  0
LINE
  5
6A5
  8
0_INFO
 62
     4
 10
-3480.0
 20
-2551.679874915185
 30
0.0
 11
-3480.0
 21
-2501.679874915184
 31
0.0
  0
LINE
  5
6A6
  8
0_INFO
 62
     4
 10
-3480.0
 20
-2501.679874915184
 30
0.0
 11
-3450.0
 21
-2501.679874915184
 31
0.0
  0
LINE
  5
6A7
  8
0_INFO
 62
     4
 10
-3450.0
 20
-2501.679874915184
 30
0.0
 11
-3450.0
 21
-2551.679874915185
 31
0.0
  0
LINE
  5
6A8
  8
0_INFO
 62
     4
 10
-3450.0
 20
-2551.679874915185
 30
0.0
 11
-3448.0
 21
-2551.679874915185
 31
0.0
  0
LINE
  5
6A9
  8
0_INFO
 62
     4
 10
-3448.0
 20
-2551.679874915185
 30
0.0
 11
-3448.0
 21
-2499.679874915184
 31
0.0
  0
LINE
  5
6AA
  8
0_INFO
 62
     4
 10
-3448.0
 20
-2499.679874915184
 30
0.0
 11
-3482.0
 21
-2499.679874915184
 31
0.0
  0
INSERT
  5
6AB
  8
0_INFO
  6
CONTINUOUS
 62
     4
  2
*U10
 10
0.0
 20
0.0
 30
0.0
1001
ACAD
1002
{
1000
R14_HATCH_DATA
1000
6AB
1011
1.0
1021
0.0
1031
0.0
1021
0.0
1031
0.0
1011
0.0
1021
1.0
1031
0.0
1021
1.0
1031
0.0
1011
0.0
1021
0.0
1031
1.0
1021
0.0
1031
1.0
1040
0.0
1010
0.0
1020
0.0
1030
1.0
1000
SOLID
1070
     1
1070
     1
1071
        1
1071
        2
1070
     0
1070
     1
1071
        8
1040
-3482.0
1040
-2499.679874915184
1040
-3482.0
1040
-2551.679874915185
1040
-3480.0
1040
-2551.679874915185
1040
-3480.0
1040
-2501.679874915184
1040
-3450.0
1040
-2501.679874915184
1040
-3450.0
1040
-2551.679874915185
1040
-3448.0
1040
-2551.679874915185
1040
-3448.0
1040
-2499.679874915184
1071
        0
1070
     0
1070
     1
1071
        0
1002
}
  0
LINE
  5
6AC
  8
0_INFO
 62
     4
 10
-3488.0
 20
-2499.679874915184
 30
0.0
 11
-3488.0
 21
-2551.679874915185
 31
0.0
  0
LINE
  5
6AD
  8
0_INFO
 62
     4
 10
-3488.0
 20
-2551.679874915185
 30
0.0
 11
-3490.0
 21
-2551.679874915185
 31
0.0
  0
LINE
  5
6AE
  8
0_INFO
 62
     4
 10
-3490.0
 20
-2551.679874915185
 30
0.0
 11
-3490.0
 21
-2501.679874915184
 31
0.0
  0
LINE
  5
6AF
  8
0_INFO
 62
     4
 10
-3490.0
 20
-2501.679874915184
 30
0.0
 11
-3520.0
 21
-2501.679874915184
 31
0.0
  0
LINE
  5
6B0
  8
0_INFO
 62
     4
 10
-3520.0
 20
-2501.679874915184
 30
0.0
 11
-3520.0
 21
-2551.679874915185
 31
0.0
  0
LINE
  5
6B1
  8
0_INFO
 62
     4
 10
-3520.0
 20
-2551.679874915185
 30
0.0
 11
-3522.0
 21
-2551.679874915185
 31
0.0
  0
LINE
  5
6B2
  8
0_INFO
 62
     4
 10
-3522.0
 20
-2551.679874915185
 30
0.0
 11
-3522.0
 21
-2499.679874915184
 31
0.0
  0
LINE
  5
6B3
  8
0_INFO
 62
     4
 10
-3522.0
 20
-2499.679874915184
 30
0.0
 11
-3488.0
 21
-2499.679874915184
 31
0.0
  0
INSERT
  5
6B4
  8
0_INFO
  6
CONTINUOUS
 62
     4
  2
*U11
 10
0.0
 20
0.0
 30
0.0
1001
ACAD
1002
{
1000
R14_HATCH_DATA
1000
6B4
1011
1.0
1021
0.0
1031
0.0
1021
0.0
1031
0.0
1011
0.0
1021
1.0
1031
0.0
1021
1.0
1031
0.0
1011
0.0
1021
0.0
1031
1.0
1021
0.0
1031
1.0
1040
0.0
1010
0.0
1020
0.0
1030
-1.0
1000
SOLID
1070
     1
1070
     1
1071
        1
1071
        2
1070
     0
1070
     1
1071
        8
1040
3488.0
1040
-2499.679874915184
1040
3488.0
1040
-2551.679874915185
1040
3490.0
1040
-2551.679874915185
1040
3490.0
1040
-2501.679874915184
1040
3520.0
1040
-2501.679874915184
1040
3520.0
1040
-2551.679874915185
1040
3522.0
1040
-2551.679874915185
1040
3522.0
1040
-2499.679874915184
1071
        0
1070
     0
1070
     1
1071
        0
1002
}
  0
LINE
  5
6B5
  8
0_INFO
 62
     4
 10
-3562.0
 20
-2499.679874915184
 30
0.0
 11
-3562.0
 21
-2551.679874915185
 31
0.0
  0
LINE
  5
6B6
  8
0_INFO
 62
     4
 10
-3562.0
 20
-2551.679874915185
 30
0.0
 11
-3560.0
 21
-2551.679874915185
 31
0.0
  0
LINE
  5
6B7
  8
0_INFO
 62
     4
 10
-3560.0
 20
-2551.679874915185
 30
0.0
 11
-3560.0
 21
-2501.679874915184
 31
0.0
  0
LINE
  5
6B8
  8
0_INFO
 62
     4
 10
-3560.0
 20
-2501.679874915184
 30
0.0
 11
-3530.0
 21
-2501.679874915184
 31
0.0
  0
LINE
  5
6B9
  8
0_INFO
 62
     4
 10
-3530.0
 20
-2501.679874915184
 30
0.0
 11
-3530.0
 21
-2551.679874915185
 31
0.0
  0
LINE
  5
6BA
  8
0_INFO
 62
     4
 10
-3530.0
 20
-2551.679874915185
 30
0.0
 11
-3528.0
 21
-2551.679874915185
 31
0.0
  0
LINE
  5
6BB
  8
0_INFO
 62
     4
 10
-3528.0
 20
-2551.679874915185
 30
0.0
 11
-3528.0
 21
-2499.679874915184
 31
0.0
  0
LINE
  5
6BC
  8
0_INFO
 62
     4
 10
-3528.0
 20
-2499.679874915184
 30
0.0
 11
-3562.0
 21
-2499.679874915184
 31
0.0
  0
INSERT
  5
6BD
  8
0_INFO
  6
CONTINUOUS
 62
     4
  2
*U12
 10
0.0
 20
0.0
 30
0.0
1001
ACAD
1002
{
1000
R14_HATCH_DATA
1000
6BD
1011
1.0
1021
0.0
1031
0.0
1021
0.0
1031
0.0
1011
0.0
1021
1.0
1031
0.0
1021
1.0
1031
0.0
1011
0.0
1021
0.0
1031
1.0
1021
0.0
1031
1.0
1040
0.0
1010
0.0
1020
0.0
1030
1.0
1000
SOLID
1070
     1
1070
     1
1071
        1
1071
        2
1070
     0
1070
     1
1071
        8
1040
-3562.0
1040
-2499.679874915184
1040
-3562.0
1040
-2551.679874915185
1040
-3560.0
1040
-2551.679874915185
1040
-3560.0
1040
-2501.679874915184
1040
-3530.0
1040
-2501.679874915184
1040
-3530.0
1040
-2551.679874915185
1040
-3528.0
1040
-2551.679874915185
1040
-3528.0
1040
-2499.679874915184
1071
        0
1070
     0
1070
     1
1071
        0
1002
}
  0
LINE
  5
6BE
  8
0_INFO
 62
     4
 10
-3568.0
 20
-2499.679874915184
 30
0.0
 11
-3568.0
 21
-2551.679874915185
 31
0.0
  0
LINE
  5
6BF
  8
0_INFO
 62
     4
 10
-3568.0
 20
-2551.679874915185
 30
0.0
 11
-3570.0
 21
-2551.679874915185
 31
0.0
  0
LINE
  5
6C0
  8
0_INFO
 62
     4
 10
-3570.0
 20
-2551.679874915185
 30
0.0
 11
-3570.0
 21
-2501.679874915184
 31
0.0
  0
LINE
  5
6C1
  8
0_INFO
 62
     4
 10
-3570.0
 20
-2501.679874915184
 30
0.0
 11
-3600.0
 21
-2501.679874915184
 31
0.0
  0
LINE
  5
6C2
  8
0_INFO
 62
     4
 10
-3600.0
 20
-2501.679874915184
 30
0.0
 11
-3600.0
 21
-2551.679874915185
 31
0.0
  0
LINE
  5
6C3
  8
0_INFO
 62
     4
 10
-3600.0
 20
-2551.679874915185
 30
0.0
 11
-3602.0
 21
-2551.679874915185
 31
0.0
  0
LINE
  5
6C4
  8
0_INFO
 62
     4
 10
-3602.0
 20
-2551.679874915185
 30
0.0
 11
-3602.0
 21
-2499.679874915184
 31
0.0
  0
LINE
  5
6C5
  8
0_INFO
 62
     4
 10
-3602.0
 20
-2499.679874915184
 30
0.0
 11
-3568.0
 21
-2499.679874915184
 31
0.0
  0
INSERT
  5
6C6
  8
0_INFO
  6
CONTINUOUS
 62
     4
  2
*U13
 10
0.0
 20
0.0
 30
0.0
1001
ACAD
1002
{
1000
R14_HATCH_DATA
1000
6C6
1011
1.0
1021
0.0
1031
0.0
1021
0.0
1031
0.0
1011
0.0
1021
1.0
1031
0.0
1021
1.0
1031
0.0
1011
0.0
1021
0.0
1031
1.0
1021
0.0
1031
1.0
1040
0.0
1010
0.0
1020
0.0
1030
-1.0
1000
SOLID
1070
     1
1070
     1
1071
        1
1071
        2
1070
     0
1070
     1
1071
        8
1040
3568.0
1040
-2499.679874915184
1040
3568.0
1040
-2551.679874915185
1040
3570.0
1040
-2551.679874915185
1040
3570.0
1040
-2501.679874915184
1040
3600.0
1040
-2501.679874915184
1040
3600.0
1040
-2551.679874915185
1040
3602.0
1040
-2551.679874915185
1040
3602.0
1040
-2499.679874915184
1071
        0
1070
     0
1070
     1
1071
        0
1002
}
  0
LINE
  5
6C7
  8
0_INFO
 62
     4
 10
-3642.0
 20
-2499.679874915184
 30
0.0
 11
-3642.0
 21
-2551.679874915185
 31
0.0
  0
LINE
  5
6C8
  8
0_INFO
 62
     4
 10
-3642.0
 20
-2551.679874915185
 30
0.0
 11
-3640.0
 21
-2551.679874915185
 31
0.0
  0
LINE
  5
6C9
  8
0_INFO
 62
     4
 10
-3640.0
 20
-2551.679874915185
 30
0.0
 11
-3640.0
 21
-2501.679874915184
 31
0.0
  0
LINE
  5
6CA
  8
0_INFO
 62
     4
 10
-3640.0
 20
-2501.679874915184
 30
0.0
 11
-3610.0
 21
-2501.679874915184
 31
0.0
  0
LINE
  5
6CB
  8
0_INFO
 62
     4
 10
-3610.0
 20
-2501.679874915184
 30
0.0
 11
-3610.0
 21
-2551.679874915185
 31
0.0
  0
LINE
  5
6CC
  8
0_INFO
 62
     4
 10
-3610.0
 20
-2551.679874915185
 30
0.0
 11
-3608.0
 21
-2551.679874915185
 31
0.0
  0
LINE
  5
6CD
  8
0_INFO
 62
     4
 10
-3608.0
 20
-2551.679874915185
 30
0.0
 11
-3608.0
 21
-2499.679874915184
 31
0.0
  0
LINE
  5
6CE
  8
0_INFO
 62
     4
 10
-3608.0
 20
-2499.679874915184
 30
0.0
 11
-3642.0
 21
-2499.679874915184
 31
0.0
  0
INSERT
  5
6CF
  8
0_INFO
  6
CONTINUOUS
 62
     4
  2
*U14
 10
0.0
 20
0.0
 30
0.0
1001
ACAD
1002
{
1000
R14_HATCH_DATA
1000
6CF
1011
1.0
1021
0.0
1031
0.0
1021
0.0
1031
0.0
1011
0.0
1021
1.0
1031
0.0
1021
1.0
1031
0.0
1011
0.0
1021
0.0
1031
1.0
1021
0.0
1031
1.0
1040
0.0
1010
0.0
1020
0.0
1030
1.0
1000
SOLID
1070
     1
1070
     1
1071
        1
1071
        2
1070
     0
1070
     1
1071
        8
1040
-3642.0
1040
-2499.679874915184
1040
-3642.0
1040
-2551.679874915185
1040
-3640.0
1040
-2551.679874915185
1040
-3640.0
1040
-2501.679874915184
1040
-3610.0
1040
-2501.679874915184
1040
-3610.0
1040
-2551.679874915185
1040
-3608.0
1040
-2551.679874915185
1040
-3608.0
1040
-2499.679874915184
1071
        0
1070
     0
1070
     1
1071
        0
1002
}
  0
LINE
  5
6D0
  8
0_INFO
 62
     4
 10
-3668.0
 20
-2499.679874915184
 30
0.0
 11
-3668.0
 21
-2551.679874915185
 31
0.0
  0
LINE
  5
6D1
  8
0_INFO
 62
     4
 10
-3668.0
 20
-2551.679874915185
 30
0.0
 11
-3670.0
 21
-2551.679874915185
 31
0.0
  0
LINE
  5
6D2
  8
0_INFO
 62
     4
 10
-3670.0
 20
-2551.679874915185
 30
0.0
 11
-3670.0
 21
-2501.679874915184
 31
0.0
  0
LINE
  5
6D3
  8
0_INFO
 62
     4
 10
-3670.0
 20
-2501.679874915184
 30
0.0
 11
-3700.0
 21
-2501.679874915184
 31
0.0
  0
LINE
  5
6D4
  8
0_INFO
 62
     4
 10
-3700.0
 20
-2501.679874915184
 30
0.0
 11
-3700.0
 21
-2551.679874915185
 31
0.0
  0
LINE
  5
6D5
  8
0_INFO
 62
     4
 10
-3700.0
 20
-2551.679874915185
 30
0.0
 11
-3702.0
 21
-2551.679874915185
 31
0.0
  0
LINE
  5
6D6
  8
0_INFO
 62
     4
 10
-3702.0
 20
-2551.679874915185
 30
0.0
 11
-3702.0
 21
-2499.679874915184
 31
0.0
  0
LINE
  5
6D7
  8
0_INFO
 62
     4
 10
-3702.0
 20
-2499.679874915184
 30
0.0
 11
-3668.0
 21
-2499.679874915184
 31
0.0
  0
INSERT
  5
6D8
  8
0_INFO
  6
CONTINUOUS
 62
     4
  2
*U15
 10
0.0
 20
0.0
 30
0.0
1001
ACAD
1002
{
1000
R14_HATCH_DATA
1000
6D8
1011
1.0
1021
0.0
1031
0.0
1021
0.0
1031
0.0
1011
0.0
1021
1.0
1031
0.0
1021
1.0
1031
0.0
1011
0.0
1021
0.0
1031
1.0
1021
0.0
1031
1.0
1040
0.0
1010
0.0
1020
0.0
1030
-1.0
1000
SOLID
1070
     1
1070
     1
1071
        1
1071
        2
1070
     0
1070
     1
1071
        8
1040
3668.0
1040
-2499.679874915184
1040
3668.0
1040
-2551.679874915185
1040
3670.0
1040
-2551.679874915185
1040
3670.0
1040
-2501.679874915184
1040
3700.0
1040
-2501.679874915184
1040
3700.0
1040
-2551.679874915185
1040
3702.0
1040
-2551.679874915185
1040
3702.0
1040
-2499.679874915184
1071
        0
1070
     0
1070
     1
1071
        0
1002
}
  0
LINE
  5
6D9
  8
0_INFO
 62
     4
 10
-3742.0
 20
-2499.679874915184
 30
0.0
 11
-3742.0
 21
-2551.679874915185
 31
0.0
  0
LINE
  5
6DA
  8
0_INFO
 62
     4
 10
-3742.0
 20
-2551.679874915185
 30
0.0
 11
-3740.0
 21
-2551.679874915185
 31
0.0
  0
LINE
  5
6DB
  8
0_INFO
 62
     4
 10
-3740.0
 20
-2551.679874915185
 30
0.0
 11
-3740.0
 21
-2501.679874915184
 31
0.0
  0
LINE
  5
6DC
  8
0_INFO
 62
     4
 10
-3740.0
 20
-2501.679874915184
 30
0.0
 11
-3710.0
 21
-2501.679874915184
 31
0.0
  0
LINE
  5
6DD
  8
0_INFO
 62
     4
 10
-3710.0
 20
-2501.679874915184
 30
0.0
 11
-3710.0
 21
-2551.679874915185
 31
0.0
  0
LINE
  5
6DE
  8
0_INFO
 62
     4
 10
-3710.0
 20
-2551.679874915185
 30
0.0
 11
-3708.0
 21
-2551.679874915185
 31
0.0
  0
LINE
  5
6DF
  8
0_INFO
 62
     4
 10
-3708.0
 20
-2551.679874915185
 30
0.0
 11
-3708.0
 21
-2499.679874915184
 31
0.0
  0
LINE
  5
6E0
  8
0_INFO
 62
     4
 10
-3708.0
 20
-2499.679874915184
 30
0.0
 11
-3742.0
 21
-2499.679874915184
 31
0.0
  0
INSERT
  5
6E1
  8
0_INFO
  6
CONTINUOUS
 62
     4
  2
*U16
 10
0.0
 20
0.0
 30
0.0
1001
ACAD
1002
{
1000
R14_HATCH_DATA
1000
6E1
1011
1.0
1021
0.0
1031
0.0
1021
0.0
1031
0.0
1011
0.0
1021
1.0
1031
0.0
1021
1.0
1031
0.0
1011
0.0
1021
0.0
1031
1.0
1021
0.0
1031
1.0
1040
0.0
1010
0.0
1020
0.0
1030
1.0
1000
SOLID
1070
     1
1070
     1
1071
        1
1071
        2
1070
     0
1070
     1
1071
        8
1040
-3742.0
1040
-2499.679874915184
1040
-3742.0
1040
-2551.679874915185
1040
-3740.0
1040
-2551.679874915185
1040
-3740.0
1040
-2501.679874915184
1040
-3710.0
1040
-2501.679874915184
1040
-3710.0
1040
-2551.679874915185
1040
-3708.0
1040
-2551.679874915185
1040
-3708.0
1040
-2499.679874915184
1071
        0
1070
     0
1070
     1
1071
        0
1002
}
  0
LINE
  5
6E2
  8
0_INFO
 62
     4
 10
-3768.0
 20
-2499.679874915184
 30
0.0
 11
-3768.0
 21
-2551.679874915185
 31
0.0
  0
LINE
  5
6E3
  8
0_INFO
 62
     4
 10
-3768.0
 20
-2551.679874915185
 30
0.0
 11
-3770.0
 21
-2551.679874915185
 31
0.0
  0
LINE
  5
6E4
  8
0_INFO
 62
     4
 10
-3770.0
 20
-2551.679874915185
 30
0.0
 11
-3770.0
 21
-2501.679874915184
 31
0.0
  0
LINE
  5
6E5
  8
0_INFO
 62
     4
 10
-3770.0
 20
-2501.679874915184
 30
0.0
 11
-3800.0
 21
-2501.679874915184
 31
0.0
  0
LINE
  5
6E6
  8
0_INFO
 62
     4
 10
-3800.0
 20
-2501.679874915184
 30
0.0
 11
-3800.0
 21
-2551.679874915185
 31
0.0
  0
LINE
  5
6E7
  8
0_INFO
 62
     4
 10
-3800.0
 20
-2551.679874915185
 30
0.0
 11
-3802.0
 21
-2551.679874915185
 31
0.0
  0
LINE
  5
6E8
  8
0_INFO
 62
     4
 10
-3802.0
 20
-2551.679874915185
 30
0.0
 11
-3802.0
 21
-2499.679874915184
 31
0.0
  0
LINE
  5
6E9
  8
0_INFO
 62
     4
 10
-3802.0
 20
-2499.679874915184
 30
0.0
 11
-3768.0
 21
-2499.679874915184
 31
0.0
  0
INSERT
  5
6EA
  8
0_INFO
  6
CONTINUOUS
 62
     4
  2
*U17
 10
0.0
 20
0.0
 30
0.0
1001
ACAD
1002
{
1000
R14_HATCH_DATA
1000
6EA
1011
1.0
1021
0.0
1031
0.0
1021
0.0
1031
0.0
1011
0.0
1021
1.0
1031
0.0
1021
1.0
1031
0.0
1011
0.0
1021
0.0
1031
1.0
1021
0.0
1031
1.0
1040
0.0
1010
0.0
1020
0.0
1030
-1.0
1000
SOLID
1070
     1
1070
     1
1071
        1
1071
        2
1070
     0
1070
     1
1071
        8
1040
3768.0
1040
-2499.679874915184
1040
3768.0
1040
-2551.679874915185
1040
3770.0
1040
-2551.679874915185
1040
3770.0
1040
-2501.679874915184
1040
3800.0
1040
-2501.679874915184
1040
3800.0
1040
-2551.679874915185
1040
3802.0
1040
-2551.679874915185
1040
3802.0
1040
-2499.679874915184
1071
        0
1070
     0
1070
     1
1071
        0
1002
}
  0
LINE
  5
6EB
  8
0_INFO
 62
     4
 10
-3842.0
 20
-2499.679874915184
 30
0.0
 11
-3842.0
 21
-2551.679874915185
 31
0.0
  0
LINE
  5
6EC
  8
0_INFO
 62
     4
 10
-3842.0
 20
-2551.679874915185
 30
0.0
 11
-3840.0
 21
-2551.679874915185
 31
0.0
  0
LINE
  5
6ED
  8
0_INFO
 62
     4
 10
-3840.0
 20
-2551.679874915185
 30
0.0
 11
-3840.0
 21
-2501.679874915184
 31
0.0
  0
LINE
  5
6EE
  8
0_INFO
 62
     4
 10
-3840.0
 20
-2501.679874915184
 30
0.0
 11
-3810.0
 21
-2501.679874915184
 31
0.0
  0
LINE
  5
6EF
  8
0_INFO
 62
     4
 10
-3810.0
 20
-2501.679874915184
 30
0.0
 11
-3810.0
 21
-2551.679874915185
 31
0.0
  0
LINE
  5
6F0
  8
0_INFO
 62
     4
 10
-3810.0
 20
-2551.679874915185
 30
0.0
 11
-3808.0
 21
-2551.679874915185
 31
0.0
  0
LINE
  5
6F1
  8
0_INFO
 62
     4
 10
-3808.0
 20
-2551.679874915185
 30
0.0
 11
-3808.0
 21
-2499.679874915184
 31
0.0
  0
LINE
  5
6F2
  8
0_INFO
 62
     4
 10
-3808.0
 20
-2499.679874915184
 30
0.0
 11
-3842.0
 21
-2499.679874915184
 31
0.0
  0
INSERT
  5
6F3
  8
0_INFO
  6
CONTINUOUS
 62
     4
  2
*U18
 10
0.0
 20
0.0
 30
0.0
1001
ACAD
1002
{
1000
R14_HATCH_DATA
1000
6F3
1011
1.0
1021
0.0
1031
0.0
1021
0.0
1031
0.0
1011
0.0
1021
1.0
1031
0.0
1021
1.0
1031
0.0
1011
0.0
1021
0.0
1031
1.0
1021
0.0
1031
1.0
1040
0.0
1010
0.0
1020
0.0
1030
1.0
1000
SOLID
1070
     1
1070
     1
1071
        1
1071
        2
1070
     0
1070
     1
1071
        8
1040
-3842.0
1040
-2499.679874915184
1040
-3842.0
1040
-2551.679874915185
1040
-3840.0
1040
-2551.679874915185
1040
-3840.0
1040
-2501.679874915184
1040
-3810.0
1040
-2501.679874915184
1040
-3810.0
1040
-2551.679874915185
1040
-3808.0
1040
-2551.679874915185
1040
-3808.0
1040
-2499.679874915184
1071
        0
1070
     0
1070
     1
1071
        0
1002
}
  0
LINE
  5
6F4
  8
0_INFO
 62
    30
 10
-3842.000000000001
 20
-2594.679874915184
 30
0.0
 11
-3842.000000000001
 21
-2654.679874915184
 31
0.0
  0
LINE
  5
6F5
  8
0_INFO
 62
    30
 10
-3842.000000000001
 20
-2654.679874915184
 30
0.0
 11
-3840.000000000001
 21
-2654.679874915184
 31
0.0
  0
LINE
  5
6F6
  8
0_INFO
 62
    30
 10
-3840.000000000001
 20
-2654.679874915184
 30
0.0
 11
-3840.000000000001
 21
-2596.679874915184
 31
0.0
  0
LINE
  5
6F7
  8
0_INFO
 62
    30
 10
-3840.000000000001
 20
-2596.679874915184
 30
0.0
 11
-3810.000000000001
 21
-2596.679874915184
 31
0.0
  0
LINE
  5
6F8
  8
0_INFO
 62
    30
 10
-3810.000000000001
 20
-2596.679874915184
 30
0.0
 11
-3810.000000000001
 21
-2654.679874915184
 31
0.0
  0
LINE
  5
6F9
  8
0_INFO
 62
    30
 10
-3810.000000000001
 20
-2654.679874915184
 30
0.0
 11
-3808.000000000001
 21
-2654.679874915184
 31
0.0
  0
LINE
  5
6FA
  8
0_INFO
 62
    30
 10
-3808.000000000001
 20
-2654.679874915184
 30
0.0
 11
-3808.0
 21
-2594.679874915184
 31
0.0
  0
LINE
  5
6FB
  8
0_INFO
 62
    30
 10
-3808.0
 20
-2594.679874915184
 30
0.0
 11
-3842.000000000001
 21
-2594.679874915184
 31
0.0
  0
INSERT
  5
6FC
  8
0_INFO
  6
CONTINUOUS
 62
    30
  2
*U19
 10
0.0
 20
0.0
 30
0.0
1001
ACAD
1002
{
1000
R14_HATCH_DATA
1000
6FC
1011
1.0
1021
0.0
1031
0.0
1021
0.0
1031
0.0
1011
0.0
1021
1.0
1031
0.0
1021
1.0
1031
0.0
1011
0.0
1021
0.0
1031
1.0
1021
0.0
1031
1.0
1040
0.0
1010
0.0
1020
0.0
1030
1.0
1000
SOLID
1070
     1
1070
     1
1071
        1
1071
        2
1070
     0
1070
     1
1071
        8
1040
-3842.000000000001
1040
-2594.679874915184
1040
-3842.000000000001
1040
-2654.679874915184
1040
-3840.000000000001
1040
-2654.679874915184
1040
-3840.000000000001
1040
-2596.679874915184
1040
-3810.000000000001
1040
-2596.679874915184
1040
-3810.000000000001
1040
-2654.679874915185
1040
-3808.000000000001
1040
-2654.679874915184
1040
-3808.0
1040
-2594.679874915184
1071
        0
1070
     0
1070
     1
1071
        0
1002
}
  0
LINE
  5
6FD
  8
0_INFO
 62
    30
 10
-3768.0
 20
-2594.679874915184
 30
0.0
 11
-3768.0
 21
-2654.679874915184
 31
0.0
  0
LINE
  5
6FE
  8
0_INFO
 62
    30
 10
-3768.0
 20
-2654.679874915184
 30
0.0
 11
-3770.0
 21
-2654.679874915184
 31
0.0
  0
LINE
  5
6FF
  8
0_INFO
 62
    30
 10
-3770.0
 20
-2654.679874915184
 30
0.0
 11
-3770.0
 21
-2596.679874915184
 31
0.0
  0
LINE
  5
700
  8
0_INFO
 62
    30
 10
-3770.0
 20
-2596.679874915184
 30
0.0
 11
-3800.0
 21
-2596.679874915184
 31
0.0
  0
LINE
  5
701
  8
0_INFO
 62
    30
 10
-3800.0
 20
-2596.679874915184
 30
0.0
 11
-3800.0
 21
-2654.679874915184
 31
0.0
  0
LINE
  5
702
  8
0_INFO
 62
    30
 10
-3800.0
 20
-2654.679874915184
 30
0.0
 11
-3802.0
 21
-2654.679874915184
 31
0.0
  0
LINE
  5
703
  8
0_INFO
 62
    30
 10
-3802.0
 20
-2654.679874915184
 30
0.0
 11
-3802.0
 21
-2594.679874915184
 31
0.0
  0
LINE
  5
704
  8
0_INFO
 62
    30
 10
-3802.0
 20
-2594.679874915184
 30
0.0
 11
-3768.0
 21
-2594.679874915184
 31
0.0
  0
INSERT
  5
705
  8
0_INFO
  6
CONTINUOUS
 62
    30
  2
*U20
 10
0.0
 20
0.0
 30
0.0
1001
ACAD
1002
{
1000
R14_HATCH_DATA
1000
705
1011
1.0
1021
0.0
1031
0.0
1021
0.0
1031
0.0
1011
0.0
1021
1.0
1031
0.0
1021
1.0
1031
0.0
1011
0.0
1021
0.0
1031
1.0
1021
0.0
1031
1.0
1040
0.0
1010
0.0
1020
0.0
1030
-1.0
1000
SOLID
1070
     1
1070
     1
1071
        1
1071
        2
1070
     0
1070
     1
1071
        8
1040
3768.0
1040
-2594.679874915184
1040
3768.0
1040
-2654.679874915184
1040
3770.0
1040
-2654.679874915184
1040
3770.0
1040
-2596.679874915184
1040
3800.0
1040
-2596.679874915184
1040
3800.0
1040
-2654.679874915184
1040
3802.0
1040
-2654.679874915184
1040
3802.0
1040
-2594.679874915184
1071
        0
1070
     0
1070
     1
1071
        0
1002
}
  0
LINE
  5
706
  8
0_INFO
 62
    30
 10
-3742.000000000001
 20
-2594.679874915184
 30
0.0
 11
-3742.000000000001
 21
-2654.679874915184
 31
0.0
  0
LINE
  5
707
  8
0_INFO
 62
    30
 10
-3742.000000000001
 20
-2654.679874915184
 30
0.0
 11
-3740.000000000001
 21
-2654.679874915184
 31
0.0
  0
LINE
  5
708
  8
0_INFO
 62
    30
 10
-3740.000000000001
 20
-2654.679874915184
 30
0.0
 11
-3740.000000000001
 21
-2596.679874915184
 31
0.0
  0
LINE
  5
709
  8
0_INFO
 62
    30
 10
-3740.000000000001
 20
-2596.679874915184
 30
0.0
 11
-3710.000000000001
 21
-2596.679874915184
 31
0.0
  0
LINE
  5
70A
  8
0_INFO
 62
    30
 10
-3710.000000000001
 20
-2596.679874915184
 30
0.0
 11
-3710.000000000001
 21
-2654.679874915184
 31
0.0
  0
LINE
  5
70B
  8
0_INFO
 62
    30
 10
-3710.000000000001
 20
-2654.679874915184
 30
0.0
 11
-3708.000000000001
 21
-2654.679874915184
 31
0.0
  0
LINE
  5
70C
  8
0_INFO
 62
    30
 10
-3708.000000000001
 20
-2654.679874915184
 30
0.0
 11
-3708.0
 21
-2594.679874915184
 31
0.0
  0
LINE
  5
70D
  8
0_INFO
 62
    30
 10
-3708.0
 20
-2594.679874915184
 30
0.0
 11
-3742.000000000001
 21
-2594.679874915184
 31
0.0
  0
INSERT
  5
70E
  8
0_INFO
  6
CONTINUOUS
 62
    30
  2
*U21
 10
0.0
 20
0.0
 30
0.0
1001
ACAD
1002
{
1000
R14_HATCH_DATA
1000
70E
1011
1.0
1021
0.0
1031
0.0
1021
0.0
1031
0.0
1011
0.0
1021
1.0
1031
0.0
1021
1.0
1031
0.0
1011
0.0
1021
0.0
1031
1.0
1021
0.0
1031
1.0
1040
0.0
1010
0.0
1020
0.0
1030
1.0
1000
SOLID
1070
     1
1070
     1
1071
        1
1071
        2
1070
     0
1070
     1
1071
        8
1040
-3742.000000000001
1040
-2594.679874915184
1040
-3742.000000000001
1040
-2654.679874915184
1040
-3740.000000000001
1040
-2654.679874915184
1040
-3740.000000000001
1040
-2596.679874915184
1040
-3710.000000000001
1040
-2596.679874915184
1040
-3710.000000000001
1040
-2654.679874915184
1040
-3708.000000000001
1040
-2654.679874915184
1040
-3708.0
1040
-2594.679874915184
1071
        0
1070
     0
1070
     1
1071
        0
1002
}
  0
LINE
  5
70F
  8
0_INFO
 62
    30
 10
-3668.0
 20
-2594.679874915184
 30
0.0
 11
-3668.0
 21
-2654.679874915184
 31
0.0
  0
LINE
  5
710
  8
0_INFO
 62
    30
 10
-3668.0
 20
-2654.679874915184
 30
0.0
 11
-3670.0
 21
-2654.679874915184
 31
0.0
  0
LINE
  5
711
  8
0_INFO
 62
    30
 10
-3670.0
 20
-2654.679874915184
 30
0.0
 11
-3670.0
 21
-2596.679874915184
 31
0.0
  0
LINE
  5
712
  8
0_INFO
 62
    30
 10
-3670.0
 20
-2596.679874915184
 30
0.0
 11
-3700.0
 21
-2596.679874915184
 31
0.0
  0
LINE
  5
713
  8
0_INFO
 62
    30
 10
-3700.0
 20
-2596.679874915184
 30
0.0
 11
-3700.0
 21
-2654.679874915184
 31
0.0
  0
LINE
  5
714
  8
0_INFO
 62
    30
 10
-3700.0
 20
-2654.679874915184
 30
0.0
 11
-3702.0
 21
-2654.679874915184
 31
0.0
  0
LINE
  5
715
  8
0_INFO
 62
    30
 10
-3702.0
 20
-2654.679874915184
 30
0.0
 11
-3702.0
 21
-2594.679874915184
 31
0.0
  0
LINE
  5
716
  8
0_INFO
 62
    30
 10
-3702.0
 20
-2594.679874915184
 30
0.0
 11
-3668.0
 21
-2594.679874915184
 31
0.0
  0
INSERT
  5
717
  8
0_INFO
  6
CONTINUOUS
 62
    30
  2
*U22
 10
0.0
 20
0.0
 30
0.0
1001
ACAD
1002
{
1000
R14_HATCH_DATA
1000
717
1011
1.0
1021
0.0
1031
0.0
1021
0.0
1031
0.0
1011
0.0
1021
1.0
1031
0.0
1021
1.0
1031
0.0
1011
0.0
1021
0.0
1031
1.0
1021
0.0
1031
1.0
1040
0.0
1010
0.0
1020
0.0
1030
-1.0
1000
SOLID
1070
     1
1070
     1
1071
        1
1071
        2
1070
     0
1070
     1
1071
        8
1040
3668.0
1040
-2594.679874915184
1040
3668.0
1040
-2654.679874915184
1040
3670.0
1040
-2654.679874915184
1040
3670.0
1040
-2596.679874915184
1040
3700.0
1040
-2596.679874915184
1040
3700.0
1040
-2654.679874915184
1040
3702.0
1040
-2654.679874915184
1040
3702.0
1040
-2594.679874915184
1071
        0
1070
     0
1070
     1
1071
        0
1002
}
  0
LINE
  5
718
  8
0_INFO
 62
    30
 10
-3642.000000000001
 20
-2594.679874915184
 30
0.0
 11
-3642.000000000001
 21
-2654.679874915184
 31
0.0
  0
LINE
  5
719
  8
0_INFO
 62
    30
 10
-3642.000000000001
 20
-2654.679874915184
 30
0.0
 11
-3640.000000000001
 21
-2654.679874915184
 31
0.0
  0
LINE
  5
71A
  8
0_INFO
 62
    30
 10
-3640.000000000001
 20
-2654.679874915184
 30
0.0
 11
-3640.000000000001
 21
-2596.679874915184
 31
0.0
  0
LINE
  5
71B
  8
0_INFO
 62
    30
 10
-3640.000000000001
 20
-2596.679874915184
 30
0.0
 11
-3610.000000000001
 21
-2596.679874915184
 31
0.0
  0
LINE
  5
71C
  8
0_INFO
 62
    30
 10
-3610.000000000001
 20
-2596.679874915184
 30
0.0
 11
-3610.000000000001
 21
-2654.679874915184
 31
0.0
  0
LINE
  5
71D
  8
0_INFO
 62
    30
 10
-3610.000000000001
 20
-2654.679874915184
 30
0.0
 11
-3608.000000000001
 21
-2654.679874915184
 31
0.0
  0
LINE
  5
71E
  8
0_INFO
 62
    30
 10
-3608.000000000001
 20
-2654.679874915184
 30
0.0
 11
-3608.0
 21
-2594.679874915184
 31
0.0
  0
LINE
  5
71F
  8
0_INFO
 62
    30
 10
-3608.0
 20
-2594.679874915184
 30
0.0
 11
-3642.000000000001
 21
-2594.679874915184
 31
0.0
  0
INSERT
  5
720
  8
0_INFO
  6
CONTINUOUS
 62
    30
  2
*U23
 10
0.0
 20
0.0
 30
0.0
1001
ACAD
1002
{
1000
R14_HATCH_DATA
1000
720
1011
1.0
1021
0.0
1031
0.0
1021
0.0
1031
0.0
1011
0.0
1021
1.0
1031
0.0
1021
1.0
1031
0.0
1011
0.0
1021
0.0
1031
1.0
1021
0.0
1031
1.0
1040
0.0
1010
0.0
1020
0.0
1030
1.0
1000
SOLID
1070
     1
1070
     1
1071
        1
1071
        2
1070
     0
1070
     1
1071
        8
1040
-3642.000000000001
1040
-2594.679874915184
1040
-3642.000000000001
1040
-2654.679874915184
1040
-3640.000000000001
1040
-2654.679874915184
1040
-3640.000000000001
1040
-2596.679874915184
1040
-3610.000000000001
1040
-2596.679874915184
1040
-3610.000000000001
1040
-2654.679874915184
1040
-3608.000000000001
1040
-2654.679874915184
1040
-3608.0
1040
-2594.679874915184
1071
        0
1070
     0
1070
     1
1071
        0
1002
}
  0
LINE
  5
721
  8
0_INFO
 62
    30
 10
-3568.0
 20
-2594.679874915184
 30
0.0
 11
-3568.0
 21
-2654.679874915184
 31
0.0
  0
LINE
  5
722
  8
0_INFO
 62
    30
 10
-3568.0
 20
-2654.679874915184
 30
0.0
 11
-3570.0
 21
-2654.679874915184
 31
0.0
  0
LINE
  5
723
  8
0_INFO
 62
    30
 10
-3570.0
 20
-2654.679874915184
 30
0.0
 11
-3570.0
 21
-2596.679874915184
 31
0.0
  0
LINE
  5
724
  8
0_INFO
 62
    30
 10
-3570.0
 20
-2596.679874915184
 30
0.0
 11
-3600.0
 21
-2596.679874915184
 31
0.0
  0
LINE
  5
725
  8
0_INFO
 62
    30
 10
-3600.0
 20
-2596.679874915184
 30
0.0
 11
-3600.0
 21
-2654.679874915184
 31
0.0
  0
LINE
  5
726
  8
0_INFO
 62
    30
 10
-3600.0
 20
-2654.679874915184
 30
0.0
 11
-3602.0
 21
-2654.679874915184
 31
0.0
  0
LINE
  5
727
  8
0_INFO
 62
    30
 10
-3602.0
 20
-2654.679874915184
 30
0.0
 11
-3602.0
 21
-2594.679874915184
 31
0.0
  0
LINE
  5
728
  8
0_INFO
 62
    30
 10
-3602.0
 20
-2594.679874915184
 30
0.0
 11
-3568.0
 21
-2594.679874915184
 31
0.0
  0
INSERT
  5
729
  8
0_INFO
  6
CONTINUOUS
 62
    30
  2
*U24
 10
0.0
 20
0.0
 30
0.0
1001
ACAD
1002
{
1000
R14_HATCH_DATA
1000
729
1011
1.0
1021
0.0
1031
0.0
1021
0.0
1031
0.0
1011
0.0
1021
1.0
1031
0.0
1021
1.0
1031
0.0
1011
0.0
1021
0.0
1031
1.0
1021
0.0
1031
1.0
1040
0.0
1010
0.0
1020
0.0
1030
-1.0
1000
SOLID
1070
     1
1070
     1
1071
        1
1071
        2
1070
     0
1070
     1
1071
        8
1040
3568.0
1040
-2594.679874915184
1040
3568.0
1040
-2654.679874915184
1040
3570.0
1040
-2654.679874915184
1040
3570.0
1040
-2596.679874915183
1040
3600.0
1040
-2596.679874915184
1040
3600.0
1040
-2654.679874915184
1040
3602.0
1040
-2654.679874915184
1040
3602.0
1040
-2594.679874915184
1071
        0
1070
     0
1070
     1
1071
        0
1002
}
  0
LINE
  5
72A
  8
0_INFO
 62
    30
 10
-3562.000000000001
 20
-2594.679874915184
 30
0.0
 11
-3562.000000000001
 21
-2654.679874915184
 31
0.0
  0
LINE
  5
72B
  8
0_INFO
 62
    30
 10
-3562.000000000001
 20
-2654.679874915184
 30
0.0
 11
-3560.000000000001
 21
-2654.679874915184
 31
0.0
  0
LINE
  5
72C
  8
0_INFO
 62
    30
 10
-3560.000000000001
 20
-2654.679874915184
 30
0.0
 11
-3560.000000000001
 21
-2596.679874915184
 31
0.0
  0
LINE
  5
72D
  8
0_INFO
 62
    30
 10
-3560.000000000001
 20
-2596.679874915184
 30
0.0
 11
-3530.000000000001
 21
-2596.679874915184
 31
0.0
  0
LINE
  5
72E
  8
0_INFO
 62
    30
 10
-3530.000000000001
 20
-2596.679874915184
 30
0.0
 11
-3530.000000000001
 21
-2654.679874915184
 31
0.0
  0
LINE
  5
72F
  8
0_INFO
 62
    30
 10
-3530.000000000001
 20
-2654.679874915184
 30
0.0
 11
-3528.000000000001
 21
-2654.679874915184
 31
0.0
  0
LINE
  5
730
  8
0_INFO
 62
    30
 10
-3528.000000000001
 20
-2654.679874915184
 30
0.0
 11
-3528.0
 21
-2594.679874915184
 31
0.0
  0
LINE
  5
731
  8
0_INFO
 62
    30
 10
-3528.0
 20
-2594.679874915184
 30
0.0
 11
-3562.000000000001
 21
-2594.679874915184
 31
0.0
  0
INSERT
  5
732
  8
0_INFO
  6
CONTINUOUS
 62
    30
  2
*U25
 10
0.0
 20
0.0
 30
0.0
1001
ACAD
1002
{
1000
R14_HATCH_DATA
1000
732
1011
1.0
1021
0.0
1031
0.0
1021
0.0
1031
0.0
1011
0.0
1021
1.0
1031
0.0
1021
1.0
1031
0.0
1011
0.0
1021
0.0
1031
1.0
1021
0.0
1031
1.0
1040
0.0
1010
0.0
1020
0.0
1030
1.0
1000
SOLID
1070
     1
1070
     1
1071
        1
1071
        2
1070
     0
1070
     1
1071
        8
1040
-3562.000000000001
1040
-2594.679874915184
1040
-3562.000000000001
1040
-2654.679874915184
1040
-3560.000000000001
1040
-2654.679874915184
1040
-3560.000000000001
1040
-2596.679874915184
1040
-3530.000000000001
1040
-2596.679874915184
1040
-3530.000000000001
1040
-2654.679874915184
1040
-3528.000000000001
1040
-2654.679874915184
1040
-3528.0
1040
-2594.679874915184
1071
        0
1070
     0
1070
     1
1071
        0
1002
}
  0
LINE
  5
733
  8
0_INFO
 62
    30
 10
-3488.0
 20
-2594.679874915184
 30
0.0
 11
-3488.0
 21
-2654.679874915184
 31
0.0
  0
LINE
  5
734
  8
0_INFO
 62
    30
 10
-3488.0
 20
-2654.679874915184
 30
0.0
 11
-3490.0
 21
-2654.679874915184
 31
0.0
  0
LINE
  5
735
  8
0_INFO
 62
    30
 10
-3490.0
 20
-2654.679874915184
 30
0.0
 11
-3490.0
 21
-2596.679874915184
 31
0.0
  0
LINE
  5
736
  8
0_INFO
 62
    30
 10
-3490.0
 20
-2596.679874915184
 30
0.0
 11
-3520.0
 21
-2596.679874915184
 31
0.0
  0
LINE
  5
737
  8
0_INFO
 62
    30
 10
-3520.0
 20
-2596.679874915184
 30
0.0
 11
-3520.0
 21
-2654.679874915184
 31
0.0
  0
LINE
  5
738
  8
0_INFO
 62
    30
 10
-3520.0
 20
-2654.679874915184
 30
0.0
 11
-3522.0
 21
-2654.679874915184
 31
0.0
  0
LINE
  5
739
  8
0_INFO
 62
    30
 10
-3522.0
 20
-2654.679874915184
 30
0.0
 11
-3522.0
 21
-2594.679874915184
 31
0.0
  0
LINE
  5
73A
  8
0_INFO
 62
    30
 10
-3522.0
 20
-2594.679874915184
 30
0.0
 11
-3488.0
 21
-2594.679874915184
 31
0.0
  0
INSERT
  5
73B
  8
0_INFO
  6
CONTINUOUS
 62
    30
  2
*U26
 10
0.0
 20
0.0
 30
0.0
1001
ACAD
1002
{
1000
R14_HATCH_DATA
1000
73B
1011
1.0
1021
0.0
1031
0.0
1021
0.0
1031
0.0
1011
0.0
1021
1.0
1031
0.0
1021
1.0
1031
0.0
1011
0.0
1021
0.0
1031
1.0
1021
0.0
1031
1.0
1040
0.0
1010
0.0
1020
0.0
1030
-1.0
1000
SOLID
1070
     1
1070
     1
1071
        1
1071
        2
1070
     0
1070
     1
1071
        8
1040
3488.0
1040
-2594.679874915184
1040
3488.0
1040
-2654.679874915184
1040
3490.0
1040
-2654.679874915184
1040
3490.0
1040
-2596.679874915184
1040
3520.0
1040
-2596.679874915184
1040
3520.0
1040
-2654.679874915184
1040
3522.0
1040
-2654.679874915184
1040
3522.0
1040
-2594.679874915184
1071
        0
1070
     0
1070
     1
1071
        0
1002
}
  0
LINE
  5
73C
  8
0_INFO
 62
    30
 10
-3482.000000000001
 20
-2594.679874915184
 30
0.0
 11
-3482.000000000001
 21
-2654.679874915184
 31
0.0
  0
LINE
  5
73D
  8
0_INFO
 62
    30
 10
-3482.000000000001
 20
-2654.679874915184
 30
0.0
 11
-3480.000000000001
 21
-2654.679874915184
 31
0.0
  0
LINE
  5
73E
  8
0_INFO
 62
    30
 10
-3480.000000000001
 20
-2654.679874915184
 30
0.0
 11
-3480.000000000001
 21
-2596.679874915184
 31
0.0
  0
LINE
  5
73F
  8
0_INFO
 62
    30
 10
-3480.000000000001
 20
-2596.679874915184
 30
0.0
 11
-3450.000000000001
 21
-2596.679874915184
 31
0.0
  0
LINE
  5
740
  8
0_INFO
 62
    30
 10
-3450.000000000001
 20
-2596.679874915184
 30
0.0
 11
-3450.000000000001
 21
-2654.679874915184
 31
0.0
  0
LINE
  5
741
  8
0_INFO
 62
    30
 10
-3450.000000000001
 20
-2654.679874915184
 30
0.0
 11
-3448.000000000001
 21
-2654.679874915184
 31
0.0
  0
LINE
  5
742
  8
0_INFO
 62
    30
 10
-3448.000000000001
 20
-2654.679874915184
 30
0.0
 11
-3448.0
 21
-2594.679874915184
 31
0.0
  0
LINE
  5
743
  8
0_INFO
 62
    30
 10
-3448.0
 20
-2594.679874915184
 30
0.0
 11
-3482.000000000001
 21
-2594.679874915184
 31
0.0
  0
INSERT
  5
744
  8
0_INFO
  6
CONTINUOUS
 62
    30
  2
*U27
 10
0.0
 20
0.0
 30
0.0
1001
ACAD
1002
{
1000
R14_HATCH_DATA
1000
744
1011
1.0
1021
0.0
1031
0.0
1021
0.0
1031
0.0
1011
0.0
1021
1.0
1031
0.0
1021
1.0
1031
0.0
1011
0.0
1021
0.0
1031
1.0
1021
0.0
1031
1.0
1040
0.0
1010
0.0
1020
0.0
1030
1.0
1000
SOLID
1070
     1
1070
     1
1071
        1
1071
        2
1070
     0
1070
     1
1071
        8
1040
-3482.000000000001
1040
-2594.679874915184
1040
-3482.000000000001
1040
-2654.679874915184
1040
-3480.000000000001
1040
-2654.679874915184
1040
-3480.000000000001
1040
-2596.679874915184
1040
-3450.000000000001
1040
-2596.679874915184
1040
-3450.000000000001
1040
-2654.679874915185
1040
-3448.000000000001
1040
-2654.679874915184
1040
-3448.0
1040
-2594.679874915184
1071
        0
1070
     0
1070
     1
1071
        0
1002
}
  0
LINE
  5
745
  8
0_INFO
 62
    30
 10
-3408.0
 20
-2594.679874915184
 30
0.0
 11
-3408.0
 21
-2654.679874915184
 31
0.0
  0
LINE
  5
746
  8
0_INFO
 62
    30
 10
-3408.0
 20
-2654.679874915184
 30
0.0
 11
-3410.0
 21
-2654.679874915184
 31
0.0
  0
LINE
  5
747
  8
0_INFO
 62
    30
 10
-3410.0
 20
-2654.679874915184
 30
0.0
 11
-3410.0
 21
-2596.679874915184
 31
0.0
  0
LINE
  5
748
  8
0_INFO
 62
    30
 10
-3410.0
 20
-2596.679874915184
 30
0.0
 11
-3440.0
 21
-2596.679874915184
 31
0.0
  0
LINE
  5
749
  8
0_INFO
 62
    30
 10
-3440.0
 20
-2596.679874915184
 30
0.0
 11
-3440.0
 21
-2654.679874915184
 31
0.0
  0
LINE
  5
74A
  8
0_INFO
 62
    30
 10
-3440.0
 20
-2654.679874915184
 30
0.0
 11
-3442.0
 21
-2654.679874915184
 31
0.0
  0
LINE
  5
74B
  8
0_INFO
 62
    30
 10
-3442.0
 20
-2654.679874915184
 30
0.0
 11
-3442.0
 21
-2594.679874915184
 31
0.0
  0
LINE
  5
74C
  8
0_INFO
 62
    30
 10
-3442.0
 20
-2594.679874915184
 30
0.0
 11
-3408.0
 21
-2594.679874915184
 31
0.0
  0
INSERT
  5
74D
  8
0_INFO
  6
CONTINUOUS
 62
    30
  2
*U28
 10
0.0
 20
0.0
 30
0.0
1001
ACAD
1002
{
1000
R14_HATCH_DATA
1000
74D
1011
1.0
1021
0.0
1031
0.0
1021
0.0
1031
0.0
1011
0.0
1021
1.0
1031
0.0
1021
1.0
1031
0.0
1011
0.0
1021
0.0
1031
1.0
1021
0.0
1031
1.0
1040
0.0
1010
0.0
1020
0.0
1030
-1.0
1000
SOLID
1070
     1
1070
     1
1071
        1
1071
        2
1070
     0
1070
     1
1071
        8
1040
3408.0
1040
-2594.679874915184
1040
3408.0
1040
-2654.679874915184
1040
3410.0
1040
-2654.679874915184
1040
3410.0
1040
-2596.679874915184
1040
3440.0
1040
-2596.679874915184
1040
3440.0
1040
-2654.679874915184
1040
3442.0
1040
-2654.679874915184
1040
3442.0
1040
-2594.679874915184
1071
        0
1070
     0
1070
     1
1071
        0
1002
}
  0
LINE
  5
74E
  8
0_INFO
 62
    30
 10
-3382.000000000001
 20
-2594.679874915184
 30
0.0
 11
-3382.000000000001
 21
-2654.679874915184
 31
0.0
  0
LINE
  5
74F
  8
0_INFO
 62
    30
 10
-3382.000000000001
 20
-2654.679874915184
 30
0.0
 11
-3380.000000000001
 21
-2654.679874915184
 31
0.0
  0
LINE
  5
750
  8
0_INFO
 62
    30
 10
-3380.000000000001
 20
-2654.679874915184
 30
0.0
 11
-3380.000000000001
 21
-2596.679874915184
 31
0.0
  0
LINE
  5
751
  8
0_INFO
 62
    30
 10
-3380.000000000001
 20
-2596.679874915184
 30
0.0
 11
-3350.000000000001
 21
-2596.679874915184
 31
0.0
  0
LINE
  5
752
  8
0_INFO
 62
    30
 10
-3350.000000000001
 20
-2596.679874915184
 30
0.0
 11
-3350.000000000001
 21
-2654.679874915184
 31
0.0
  0
LINE
  5
753
  8
0_INFO
 62
    30
 10
-3350.000000000001
 20
-2654.679874915184
 30
0.0
 11
-3348.000000000001
 21
-2654.679874915184
 31
0.0
  0
LINE
  5
754
  8
0_INFO
 62
    30
 10
-3348.000000000001
 20
-2654.679874915184
 30
0.0
 11
-3348.0
 21
-2594.679874915184
 31
0.0
  0
LINE
  5
755
  8
0_INFO
 62
    30
 10
-3348.0
 20
-2594.679874915184
 30
0.0
 11
-3382.000000000001
 21
-2594.679874915184
 31
0.0
  0
INSERT
  5
756
  8
0_INFO
  6
CONTINUOUS
 62
    30
  2
*U29
 10
0.0
 20
0.0
 30
0.0
1001
ACAD
1002
{
1000
R14_HATCH_DATA
1000
756
1011
1.0
1021
0.0
1031
0.0
1021
0.0
1031
0.0
1011
0.0
1021
1.0
1031
0.0
1021
1.0
1031
0.0
1011
0.0
1021
0.0
1031
1.0
1021
0.0
1031
1.0
1040
0.0
1010
0.0
1020
0.0
1030
1.0
1000
SOLID
1070
     1
1070
     1
1071
        1
1071
        2
1070
     0
1070
     1
1071
        8
1040
-3382.000000000001
1040
-2594.679874915184
1040
-3382.000000000001
1040
-2654.679874915184
1040
-3380.000000000001
1040
-2654.679874915184
1040
-3380.000000000001
1040
-2596.679874915184
1040
-3350.000000000001
1040
-2596.679874915184
1040
-3350.000000000001
1040
-2654.679874915184
1040
-3348.000000000001
1040
-2654.679874915184
1040
-3348.0
1040
-2594.679874915184
1071
        0
1070
     0
1070
     1
1071
        0
1002
}
  0
LINE
  5
757
  8
0_INFO
 62
    30
 10
-3308.0
 20
-2594.679874915184
 30
0.0
 11
-3308.0
 21
-2654.679874915184
 31
0.0
  0
LINE
  5
758
  8
0_INFO
 62
    30
 10
-3308.0
 20
-2654.679874915184
 30
0.0
 11
-3310.0
 21
-2654.679874915184
 31
0.0
  0
LINE
  5
759
  8
0_INFO
 62
    30
 10
-3310.0
 20
-2654.679874915184
 30
0.0
 11
-3310.0
 21
-2596.679874915184
 31
0.0
  0
LINE
  5
75A
  8
0_INFO
 62
    30
 10
-3310.0
 20
-2596.679874915184
 30
0.0
 11
-3340.0
 21
-2596.679874915184
 31
0.0
  0
LINE
  5
75B
  8
0_INFO
 62
    30
 10
-3340.0
 20
-2596.679874915184
 30
0.0
 11
-3340.0
 21
-2654.679874915184
 31
0.0
  0
LINE
  5
75C
  8
0_INFO
 62
    30
 10
-3340.0
 20
-2654.679874915184
 30
0.0
 11
-3342.0
 21
-2654.679874915184
 31
0.0
  0
LINE
  5
75D
  8
0_INFO
 62
    30
 10
-3342.0
 20
-2654.679874915184
 30
0.0
 11
-3342.0
 21
-2594.679874915184
 31
0.0
  0
LINE
  5
75E
  8
0_INFO
 62
    30
 10
-3342.0
 20
-2594.679874915184
 30
0.0
 11
-3308.0
 21
-2594.679874915184
 31
0.0
  0
INSERT
  5
75F
  8
0_INFO
  6
CONTINUOUS
 62
    30
  2
*U30
 10
0.0
 20
0.0
 30
0.0
1001
ACAD
1002
{
1000
R14_HATCH_DATA
1000
75F
1011
1.0
1021
0.0
1031
0.0
1021
0.0
1031
0.0
1011
0.0
1021
1.0
1031
0.0
1021
1.0
1031
0.0
1011
0.0
1021
0.0
1031
1.0
1021
0.0
1031
1.0
1040
0.0
1010
0.0
1020
0.0
1030
-1.0
1000
SOLID
1070
     1
1070
     1
1071
        1
1071
        2
1070
     0
1070
     1
1071
        8
1040
3308.0
1040
-2594.679874915184
1040
3308.0
1040
-2654.679874915184
1040
3310.0
1040
-2654.679874915184
1040
3310.0
1040
-2596.679874915184
1040
3340.0
1040
-2596.679874915184
1040
3340.0
1040
-2654.679874915184
1040
3342.0
1040
-2654.679874915184
1040
3342.0
1040
-2594.679874915184
1071
        0
1070
     0
1070
     1
1071
        0
1002
}
  0
LINE
  5
760
  8
0_INFO
 62
    30
 10
-3282.000000000001
 20
-2594.679874915184
 30
0.0
 11
-3282.000000000001
 21
-2654.679874915184
 31
0.0
  0
LINE
  5
761
  8
0_INFO
 62
    30
 10
-3282.000000000001
 20
-2654.679874915184
 30
0.0
 11
-3280.000000000001
 21
-2654.679874915184
 31
0.0
  0
LINE
  5
762
  8
0_INFO
 62
    30
 10
-3280.000000000001
 20
-2654.679874915184
 30
0.0
 11
-3280.000000000001
 21
-2596.679874915184
 31
0.0
  0
LINE
  5
763
  8
0_INFO
 62
    30
 10
-3280.000000000001
 20
-2596.679874915184
 30
0.0
 11
-3250.000000000001
 21
-2596.679874915184
 31
0.0
  0
LINE
  5
764
  8
0_INFO
 62
    30
 10
-3250.000000000001
 20
-2596.679874915184
 30
0.0
 11
-3250.000000000001
 21
-2654.679874915184
 31
0.0
  0
LINE
  5
765
  8
0_INFO
 62
    30
 10
-3250.000000000001
 20
-2654.679874915184
 30
0.0
 11
-3248.000000000001
 21
-2654.679874915184
 31
0.0
  0
LINE
  5
766
  8
0_INFO
 62
    30
 10
-3248.000000000001
 20
-2654.679874915184
 30
0.0
 11
-3248.0
 21
-2594.679874915184
 31
0.0
  0
LINE
  5
767
  8
0_INFO
 62
    30
 10
-3248.0
 20
-2594.679874915184
 30
0.0
 11
-3282.000000000001
 21
-2594.679874915184
 31
0.0
  0
INSERT
  5
768
  8
0_INFO
  6
CONTINUOUS
 62
    30
  2
*U31
 10
0.0
 20
0.0
 30
0.0
1001
ACAD
1002
{
1000
R14_HATCH_DATA
1000
768
1011
1.0
1021
0.0
1031
0.0
1021
0.0
1031
0.0
1011
0.0
1021
1.0
1031
0.0
1021
1.0
1031
0.0
1011
0.0
1021
0.0
1031
1.0
1021
0.0
1031
1.0
1040
0.0
1010
0.0
1020
0.0
1030
1.0
1000
SOLID
1070
     1
1070
     1
1071
        1
1071
        2
1070
     0
1070
     1
1071
        8
1040
-3282.000000000001
1040
-2594.679874915184
1040
-3282.000000000001
1040
-2654.679874915184
1040
-3280.000000000001
1040
-2654.679874915184
1040
-3280.000000000001
1040
-2596.679874915184
1040
-3250.000000000001
1040
-2596.679874915184
1040
-3250.000000000001
1040
-2654.679874915184
1040
-3248.000000000001
1040
-2654.679874915184
1040
-3248.0
1040
-2594.679874915184
1071
        0
1070
     0
1070
     1
1071
        0
1002
}
  0
LINE
  5
769
  8
0_INFO
 62
    30
 10
-3208.0
 20
-2594.679874915184
 30
0.0
 11
-3208.0
 21
-2654.679874915184
 31
0.0
  0
LINE
  5
76A
  8
0_INFO
 62
    30
 10
-3208.0
 20
-2654.679874915184
 30
0.0
 11
-3210.0
 21
-2654.679874915184
 31
0.0
  0
LINE
  5
76B
  8
0_INFO
 62
    30
 10
-3210.0
 20
-2654.679874915184
 30
0.0
 11
-3210.0
 21
-2596.679874915184
 31
0.0
  0
LINE
  5
76C
  8
0_INFO
 62
    30
 10
-3210.0
 20
-2596.679874915184
 30
0.0
 11
-3240.0
 21
-2596.679874915184
 31
0.0
  0
LINE
  5
76D
  8
0_INFO
 62
    30
 10
-3240.0
 20
-2596.679874915184
 30
0.0
 11
-3240.0
 21
-2654.679874915184
 31
0.0
  0
LINE
  5
76E
  8
0_INFO
 62
    30
 10
-3240.0
 20
-2654.679874915184
 30
0.0
 11
-3242.0
 21
-2654.679874915184
 31
0.0
  0
LINE
  5
76F
  8
0_INFO
 62
    30
 10
-3242.0
 20
-2654.679874915184
 30
0.0
 11
-3242.0
 21
-2594.679874915184
 31
0.0
  0
LINE
  5
770
  8
0_INFO
 62
    30
 10
-3242.0
 20
-2594.679874915184
 30
0.0
 11
-3208.0
 21
-2594.679874915184
 31
0.0
  0
INSERT
  5
771
  8
0_INFO
  6
CONTINUOUS
 62
    30
  2
*U32
 10
0.0
 20
0.0
 30
0.0
1001
ACAD
1002
{
1000
R14_HATCH_DATA
1000
771
1011
1.0
1021
0.0
1031
0.0
1021
0.0
1031
0.0
1011
0.0
1021
1.0
1031
0.0
1021
1.0
1031
0.0
1011
0.0
1021
0.0
1031
1.0
1021
0.0
1031
1.0
1040
0.0
1010
0.0
1020
0.0
1030
-1.0
1000
SOLID
1070
     1
1070
     1
1071
        1
1071
        2
1070
     0
1070
     1
1071
        8
1040
3208.0
1040
-2594.679874915184
1040
3208.0
1040
-2654.679874915184
1040
3210.0
1040
-2654.679874915184
1040
3210.0
1040
-2596.679874915183
1040
3240.0
1040
-2596.679874915184
1040
3240.0
1040
-2654.679874915184
1040
3242.0
1040
-2654.679874915184
1040
3242.0
1040
-2594.679874915184
1071
        0
1070
     0
1070
     1
1071
        0
1002
}
  0
TEXT
  5
772
  8
0_INFO
 10
0.7724542231672791
 20
-448.1915912702606
 30
0.0
 40
25.1722
  1
Laser Helix | max. 600 x 450 mm
  7
ARIAL
1001
ACADANNOTATIVE
1000
AnnotativeData
1002
{
1070
     1
1070
     0
1002
}
  0
TEXT
  5
773
  8
0_INFO
 10
-4.794704761904762
 20
-609.6092509607166
 30
0.0
 40
25.1722
  1
Laser Legend | max. 900 x 600 mm
  7
ARIAL
1001
ACADANNOTATIVE
1000
AnnotativeData
1002
{
1070
     1
1070
     0
1002
}
  0
ARC
  5
774
  8
0_INFO
 10
0.0
 20
0.0
 30
0.0
 40
49.99999999999999
 50
0.0
 51
90.0
  0
CIRCLE
  5
775
  8
0_INFO
 10
0.0
 20
0.0
 30
0.0
 40
49.99999999999999
  0
LINE
  5
776
  8
0_INFO
 10
0.0
 20
-609.0
 30
0.0
 11
914.0
 21
-609.0
 31
0.0
  0
LINE
  5
777
  8
0_INFO
 10
914.0
 20
-609.0
 30
0.0
 11
914.0
 21
0.0
 31
0.0
  0
LINE
  5
778
  8
0_INFO
 10
914.0
 20
0.0
 30
0.0
 11
0.0
 21
0.0
 31
0.0
  0
LINE
  5
779
  8
0_INFO
 10
0.0
 20
0.0
 30
0.0
 11
0.0
 21
-609.0
 31
0.0
  0
TEXT
  5
77A
  8
0_INFO
 10
-4.794704761904762
 20
-910.1434463054475
 30
0.0
 40
25.1722
  1
Laser FusionPro | max. 1200 x 900 mm
  7
ARIAL
1001
ACADANNOTATIVE
1000
AnnotativeData
1002
{
1070
     1
1070
     0
1002
}
  0
LINE
  5
77B
  8
0_INFO
 10
0.0
 20
-450.0
 30
0.0
 11
609.0
 21
-450.0
 31
0.0
  0
LINE
  5
77C
  8
0_INFO
 10
609.0
 20
-450.0
 30
0.0
 11
609.0
 21
0.0
 31
0.0
  0
LINE
  5
77D
  8
0_INFO
 10
609.0
 20
0.0
 30
0.0
 11
0.0
 21
0.0
 31
0.0
  0
LINE
  5
77E
  8
0_INFO
 10
0.0
 20
0.0
 30
0.0
 11
0.0
 21
-450.0
 31
0.0
  0
LINE
  5
77F
  8
0_INFO
 10
0.0
 20
-914.0
 30
0.0
 11
1200.0
 21
-914.0
 31
0.0
  0
LINE
  5
780
  8
0_INFO
 10
1200.0
 20
-914.0
 30
0.0
 11
1200.0
 21
0.0
 31
0.0
  0
LINE
  5
781
  8
0_INFO
 10
1200.0
 20
0.0
 30
0.0
 11
0.0
 21
0.0
 31
0.0
  0
LINE
  5
782
  8
0_INFO
 10
0.0
 20
0.0
 30
0.0
 11
0.0
 21
-914.0
 31
0.0
  0
VIEWPORT
  5
787
 67
     1
  8
0
 10
6.0
 20
4.5
 30
0.0
 40
12.696
 41
9.522
 68
     1
 69
     1
1001
ACAD
1000
MVIEW
1002
{
1070
    16
1010
0.0
1020
0.0
1030
0.0
1010
0.0
1020
0.0
1030
1.0
1040
0.0
1040
9.522
1040
6.0
1040
4.5
1040
50.0
1040
0.0
1040
0.0
1070
     0
1070
   100
1070
     0
1070
     3
1070
     0
1070
     0
1070
     0
1070
     0
1040
0.0
1040
0.0
1040
0.0
1040
10.0
1040
10.0
1040
10.0
1040
10.0
1070
     0
1002
{
1002
}
1002
}
  0
VIEWPORT
  5
789
 67
     1
  8
1_PAPPENGR__SHEET_SIZE
 10
427.9500127
 20
306.15
 30
0.0
 40
894.0
 41
590.0
 68
     2
 69
     2
1001
ACAD
1000
MVIEW
1002
{
1070
    16
1010
446.9568089910262
1020
-294.9447643516986
1030
0.0000038002967528
1010
0.0
1020
0.0
1030
1.0
1040
0.0
1040
590.0
1040
0.0
1040
0.0
1040
50.0
1040
0.0
1040
0.0
1070
     0
1070
   100
1070
     0
1070
     3
1070
     0
1070
     0
1070
     0
1070
     0
1040
0.0
1040
0.0
1040
0.0
1040
10.0
1040
10.0
1040
10.0
1040
10.0
1070
     0
1002
{
1002
}
1002
}
  0
ENDSEC
  0
EOF
